Bass Tabs
(THIRD DAY) OR BY ARTIST NAME (JENNIFER KNAPP)
0-9|A|B|C|D|E|F|G|H|I|J|K|L|M|N|O|P|Q|R|S|T|U|V|W|X|Y|Z

Join Us Today!

Don't strum alone...
be a part of the largest online Christian music community. Browse thousands of guitar tabs and chat w/ musicians like yourself.


It's Free!

This tab has not yet been rated for accuracy.Sorry, but you must be logged in to rate this tab.
Click here to log-in, or you can click here to register.
(Registration is free)

All songs owned by Integrity and Brentwood-Benson are used by permission. If you make copies of any song on this website, be sure to report your usage to CCLI.
Submitted by: mag85

In the previous tab the chorus was all wrong so i changed it and added some extra stuff that was missed

Guitar intro
  no bass

Verse 1
D |--------------------------------|
A |7-------5-------3-------5-------|  x3
E |--------------------------------|

Chorus Intro
D |--------------------------------|
A |--------5-------3-------------3-|  
E |3-------------------------------|

Instrumental Chorus
D |----------------2-2-222---------|
A |------------------------3-3-333-|  x2
E |3-3-333-3-3-333----------------|

Verse 2
D |------------------------------------------------2-2-222---------|
A |----------------3-3-333-3-3-333-------------------------3-3-333-|
E |3-3-333-3-3-333----------------3-3-333-3-3-333-----------------|

Chorus
D |----------------2-2-222---------|
A |------------------------3-3-333-|  x2
E |3-3-333-3-3-333-----------------|

Verse 3
D |---(14)-------(12)-------(10)-------(12)----|
A |7---------5---------3----------5---------|  x3
E |------------------------------------------|

Chorus Intro

Chorus  x4

Bridge 
D |---------------------------------------------------------|
A |3-------2---5---3-------2---5---3-------2---5---77777777|
E |---------------------------------------------------------|

Guitar Solo\Chorus
D |----------------2-2-222---------|
A |------------------------3-3-333-|  Play until end
E |3-3-333-3-3-333-----------------|

End on low G

The timing should be right except on verse 3. I think its slides on verse 3 but its easier to play this way
I also have the higher frets in brackets ( ). Good Luck and God bless!

Comments about this tab

sunisarg - 2004-09-15

The bridge is missing!


guitarpsych1 - 2004-10-08

I think that second Bm should be a G


davkarmusic - 2005-02-01

Actually, the Bm is not a G, either...it is a F#m, followed by F#/Bb...THEN Bm, A & D


davkarmusic - 2005-02-01

It should look like:

F#m F#/Bb Bm A D - D/F# G D - A G - D
For when your eyes are on this child, Your grace abounds to me


Add a comment/correction

Complimentary Christian Ringtones
Dadamobile and CGR have teamed up to bring your favorite Christian artists right to your phone. Sign up today and get 10 complementary ringtones!
Tab Country
Did you know CGR has a sister site w/ country guitar tabs? Well we do! Its called Tab Country. It has a great archive with a lot of country tabs.
Rockin Tabs
Are you looking for a site that has rock guitar tabs? Then Rockintabs.com is the place for you. It is a budding site with many rock guitar tabs. Submit your tab today.
Tab Gallery
Tab Gallery has a compilation of christian, rock, and country tabs all in one place. Come visit us.