Bass Tabs
(THIRD DAY) OR BY ARTIST NAME (JENNIFER KNAPP)
0-9|A|B|C|D|E|F|G|H|I|J|K|L|M|N|O|P|Q|R|S|T|U|V|W|X|Y|Z

Join Us Today!

Don't strum alone...
be a part of the largest online Christian music community. Browse thousands of guitar tabs and chat w/ musicians like yourself.


It's Free!

This tab has not yet been rated for accuracy.Sorry, but you must be logged in to rate this tab.
Click here to log-in, or you can click here to register.
(Registration is free)

All songs owned by Integrity and Brentwood-Benson are used by permission. If you make copies of any song on this website, be sure to report your usage to CCLI.
Submitted by: yasdnil

Further Seems Forever - The Deep (bass tab)

Lindsay Kennedy

Tuning down one half step
Timing is 3/4 for most of the song...

I'm not a bassist, and I don't have a bass. I tabbed this out on request.
I just tabbed by ear, and my acoustic guitar...so please post any corrections.



Intro - No Bass for first two riffs. Comes in with rest of band.


F#|----------------------------|
C#|----------------------------|
G#|----------------------------|
D#|-1--------------3-----------| x3

F#|----------------------------|
C#|-5------5-------5-----------|
G#|----------------------------|
D#|----------------------------|



Verse x2
F#|--------------------------------------------------------------|
C#|-------------2---0--------------------------------------------|
G#|-0------3---------------3----2---0----------------------------|
D#|----------------------------------------3-------1------0----0-|

F#|--------------------------------------------------------------|
C#|-------------2---0-------------------------------------2----2-|
G#|-0------3---------------3----2---0----------------------------|
D#|----------------------------------------3-------1-------------|



Chorus
F#|-----------------------------|
C#|-----------------------------|
G#|-----------------------------|
D#|-1------1----1---3-----------| x3

F#|-----------------------------|
C#|-5------5-------5------------|
G#|-----------------------------|
D#|-----------------------------|



Verse 2 (same as Verse 1)



Chorus 2



F#|-----------------------------|
C#|-----------------------------|
G#|-----------------------------|
D#|-1------1----1---3-----------| x7

F#|-----------------------------|
C#|-----------------------------|
G#|-2------2-------2------2-----|
D#|-----------------------------|
(might sound wrong...but I'm pretty sure it's right...)



Buildup
F#|----------------|
C#|----------------|
G#|----------------|
D#|-0----0----0----| x4

F#|----------------|
C#|----------------|
G#|----------------|
D#|-2----2----2----|

F#|--------------------------|
C#|--------------------------|
G#|--------------------------|
D#|-3----3----3----3----3----|
(this bar is either 5/4 or one bar of 3/4 and one of 2/4)

F#|------------------------------------------------------|
C#|------------------------------------------------------|
G#|-3~------------3~------------3~-----------------------|
D#|------------------------------------------------------|



Bridge
F#|------------------------------------|
C#|------------------------------------|
G#|------------------------------------|
D#|-3--3--3--3--3--3--3--3--3--3--3--3-|

F#|------------------------------------|
C#|------------------------------------|
G#|-5--5--5--5--5--5--5--5--5--5--5--5-|
D#|------------------------------------|

F#|------------------------------------|
C#|------------------------------------|
G#|------------------------------------|
D#|-3--3--3--3--3--3--3--3--3--3--3--3-|

F#|------------------------------------|
C#|------------------------------------|
G#|-5--5--5--5--5--5--5--5--5--5--5--5-|
D#|------------------------------------|
 
F#|------------------------------------|
C#|------------------------------------|
G#|-7--7--7--7--7--7--7--7--7--7--7--7-|
D#|------------------------------------|

F#|------------------------------------|
C#|------------------------------------|
G#|------------------------------------|
D#|-3--3--3--3--3--3--3--3--3--3--3--3-|

F#|------------------------------------|
C#|------------------------------------|
G#|-5--5--5--5--5--5--5--5--5--5--5--5-|
D#|------------------------------------| x2

F#|-------------------|
C#|-------------------|
G#|-5--5--5--5--5-----|
D#|-------------------|

F#|---------------------------|
C#|---------------------------|
G#|---------------------------|
D#|-0-------------0-----------|



Another buildup, this time without bass


Bass comes in...
F#|--------------------------------------------|
C#|--------------------------------------------|
G#|--------------------3------3------3----3----|
D#|-0--0--0--0--0--0---------------------------| x7
(This is one bar of 3/4 and one of 5/4 I think...)

F#|--------------------------------------------|
C#|--------------------------------------------|
G#|--------------------3-----------------------|
D#|-0------------------------------------------|

Comments about this tab

Orual - 2004-04-15

VERY nice... the only suggestion I have is posting the fingerings for your chords; I couldn't find some of them.


Add a comment/correction

Complimentary Christian Ringtones
Dadamobile and CGR have teamed up to bring your favorite Christian artists right to your phone. Sign up today and get 10 complementary ringtones!
Tab Country
Did you know CGR has a sister site w/ country guitar tabs? Well we do! Its called Tab Country. It has a great archive with a lot of country tabs.
Rockin Tabs
Are you looking for a site that has rock guitar tabs? Then Rockintabs.com is the place for you. It is a budding site with many rock guitar tabs. Submit your tab today.
Tab Gallery
Tab Gallery has a compilation of christian, rock, and country tabs all in one place. Come visit us.