Bass Tabs
(THIRD DAY) OR BY ARTIST NAME (JENNIFER KNAPP)
0-9|A|B|C|D|E|F|G|H|I|J|K|L|M|N|O|P|Q|R|S|T|U|V|W|X|Y|Z

Join Us Today!

Don't strum alone...
be a part of the largest online Christian music community. Browse thousands of guitar tabs and chat w/ musicians like yourself.


It's Free!

Ghoti Hook - I See Red

This tab has not yet been rated for accuracy.Sorry, but you must be logged in to rate this tab.
Click here to log-in, or you can click here to register.
(Registration is free)

All songs owned by Integrity and Brentwood-Benson are used by permission. If you make copies of any song on this website, be sure to report your usage to CCLI.
+------------------------------------------+
\  Artist     :  Ghoti Hook                 \
/  Song       :  I See Red                  /
\  Instrument :  Bass                       \
/  Tabbed by  :  Mike!    /
\___________________________________________\

Intro:
G-|---------------------------|
D-|---------------------------| \ x4
A-|-5-5-5-5-5-5-5-5-5---------| /
E-|-------------------5-3-5-3-|

G-|---------------------------|
D-|---------------------------|
A-|-5-5-5-5-5-5-5-5-5---------|
E-|-------------------5-5-5-5-|
She wore blue
her back of blue shoes
she wore green, they wear it anyway
She and the car
went back through the red light
stop i forgot all my memories

G-|---------------------------------|
D-|-----------------3-3-3-3---------|
A-|-2-2-2-2-3-3-3-3---------5-5-5-5-|
E-|---------------------------------|
I see red when I see you
bells ring at 3 Am
I get mad, drinks get spilled
Five past two I dont feel sad
But then I see you and I see red

G-|---------------------------|
D-|---------------------------| \ x2
A-|-5-5-5-5-5-5-5-5-5---------| /
E-|-------------------5-3-5-3-|

G-|---------------------------|
D-|---------------------------|
A-|-5-5-5-5-5-5-5-5-5---------|
E-|-------------------5-5-5-5-|
I cant look down
Or I might follow you
I might follow in your footsteps
I see your shoulder the sun down
Whats the luck
And I had to hunt, I had to hunt you up

G-|---------------------------------|
D-|-----------------3-3-3-3---------|
A-|-2-2-2-2-3-3-3-3---------5-5-5-5-|
E-|---------------------------------|
I see red when I see you
bells ring at 3 Am
I get mad, drinks get spilled
Five past two I dont feel sad
But then I see you

G-|-----------------------------------------------------------------|
D-|-----------------------------------------------------------------| \ x4
A-|---------------------------------5-5-5-5-5-5-5-5-5-5-5-5-5-5-5-5-| /
E-|-1-1-1-1-1-1-1-1-1-1-1-1-1-1-1-1---------------------------------|

G-|---------------------------------|
D-|---------------------------------| \ x4
A-|-----------------5-5-5-5-5-5-5-5-| /
E-|-1-1-1-1-1-1-1-1-----------------|

G-|------------------------------------|
D-|------------------------------------| \ x2
A-|-------------------5-5-5-5--5-5-5-5-| /
E-|-1-1-1-1--1-1-1-1-------------------|

G-|---------------------------------|
D-|---------------------------------|
A-|-----------------5-5-5-5-5-5-5-5-|
E-|-1-1-1-1-1-1-1-1-----------------|
Dont feel sad
But then I see you
Dont feel sad
But then I see you
And I see red

G-|---------------------------|
D-|---------------------------| \ x2
A-|-5-5-5-5-5-5-5-5-5---------| /
E-|-------------------5-3-5-3-|

G-|---------------------------|
D-|---------------------------|
A-|-5-5-5-5-5-5-5-5-5---------|
E-|-------------------5-5-5-5-|
He sees the sun come up and she needs to rest
Here it comes creeping so close to the bed
Goodbye to darkness I see your shining face
Shes always thinking about the facts of love

G-|---------------------------------|
D-|-----------------3-3-3-3---------|
A-|-2-2-2-2-3-3-3-3---------5-5-5-5-|
E-|---------------------------------|
I see red when I see you
bells ring at 3 Am
I get mad, drinks get spilled
Five past two I dont feel sad
But then I see you
And I see red

G-|---------------------------|        |-------|
D-|---------------------------| \ x10  |-------|
A-|-5-5-5-5-5-5-5-5-5---------| /      |-5---5-|
E-|-------------------5-3-5-3-|        |-------|

Comments about this tab

No comments/corrections found. Add your own

Complimentary Christian Ringtones
Dadamobile and CGR have teamed up to bring your favorite Christian artists right to your phone. Sign up today and get 10 complementary ringtones!
Tab Country
Did you know CGR has a sister site w/ country guitar tabs? Well we do! Its called Tab Country. It has a great archive with a lot of country tabs.
Rockin Tabs
Are you looking for a site that has rock guitar tabs? Then Rockintabs.com is the place for you. It is a budding site with many rock guitar tabs. Submit your tab today.
Tab Gallery
Tab Gallery has a compilation of christian, rock, and country tabs all in one place. Come visit us.