Bass Tabs
(THIRD DAY) OR BY ARTIST NAME (JENNIFER KNAPP)
0-9|A|B|C|D|E|F|G|H|I|J|K|L|M|N|O|P|Q|R|S|T|U|V|W|X|Y|Z

Join Us Today!

Don't strum alone...
be a part of the largest online Christian music community. Browse thousands of guitar tabs and chat w/ musicians like yourself.


It's Free!

Audio Adrenaline - Never Gonna Be As Big As Jesus

This tab has been rated a 5.00 out of 5 for accuracy. (6 votes)Sorry, but you must be logged in to rate this tab.
Click here to log-in, or you can click here to register.
(Registration is free)

All songs owned by Integrity and Brentwood-Benson are used by permission. If you make copies of any song on this website, be sure to report your usage to CCLI.
Song: Never Gonna Be As Big As Jesus
Artist: Audio Adrenaline
Album: Bloom
copyright 1996 Forefront Communications Group, Inc.
Origonally tabbed by jrsmith@netdoor.com
Corrected by Joel Sprenger e-mail: shorty779@hotmail.com

verse 1:
G|-------7-7-7-5---------7-7-7-5---------7-7-7-5---------7-7-7-5---|2x
D|-----7---------7-----7---------7-----7---------7-----7---------7-|
A|-5-5-------------5-5-------------5-5-------------5-5-------------|
E|-----------------------------------------------------------------|

G|-------------------------------7-7-7-5---------7-7-7-5---|
D|-5-5-5-5-5-5-5-5-5-5-5-5-----7---------7-----7---------7-|
A|-------------------------5-5-------------5-5-------------|
E|---------------------------------------------------------|

G|-------7-7-7-5---------7-7-7-5---------7-7-7-5---------7-7-7-5---|
D|-----7---------7-----7---------7-----7---------7-----7---------7-|
A|-5-5-------------5-5-------------5-5-------------5-5-------------|
E|-----------------------------------------------------------------|

G|-----------------------5-7-------------------------|
D|-5-5-5-5-5-5-5-5-5-5-5-----5-5-5-5-5-5-5-5-5-5-5-5-|
A|---------------------------------------------------|
E|---------------------------------------------------|

G|---------------------------7-7-7-5---------7-7-7-5---|
D|-2-2-2-2-2-5-5-5-5-5-----7---------7-----7---------7-|
A|---------------------5-5-------------5-5-------------|
E|-----------------------------------------------------|

G|------------------------------------|
D|------------------------------------|
A|-7-7-7-7-7-10-10-10-10-10-----------|
E|--------------------------3-5-7-9-9-|

E|-0-0-0-0-0-0-0-0-0-0-0-0-0-0-0-0-0-0-0-0-0-0-0-0-0-0-0-0-0-0-|

E|-1-1/3-3-3-3-3-3-3-3-3-3-3-3-3-3-3-3-3-3-3-3-3-3-3-3-5-7-9-9-|

G|-------7-7-7-5---------7-7-7-5---------7-7-7-5---------------|
D|-----7---------7-----7---------7-----7---------7-5-5-5-5-5-5-|
A|-5-5-------------5-5-------------5-5-------------------------|
E|-------------------------------------------------------------|

G|---------------7-7-7-5---|
D|-5-4-2-2-----7---------7-|
A|---------5-5-------------|
E|-------------------------|

verse 2:
G|-------7-7-7-5---------7-7-7-5---------7-7-7-5---------7-7-7-5---|
D|-----7---------7-----7---------7-----7---------7-----7---------7-|
A|-5-5-------------5-5-------------5-5-------------5-5-------------|
E|-----------------------------------------------------------------|

G|-------------------------5-7-------------------------|
D|-5-5-5-5-5-5-5-5-5-5-5-5-----5-5-5-5-5-5-5-5-5-5-5-5-|
A|-----------------------------------------------------|
E|-----------------------------------------------------|

G|---------------------------7-7-7-5---------7-7-7-5---|
D|-2-2-2-2-2-5-5-5-5-5-----7---------7-----7---------7-|
A|---------------------5-5-------------5-5-------------|
E|-----------------------------------------------------|

G|------------------------------------|
D|------------------------------------|
A|-7-7-7-7-7-10-10-10-10-10-----------|
E|--------------------------3-5-7-9-9-|

E|-0-0-0-0-0-0-0-0-0-0-0-0-0-0-0-0-0-0-0-0-0-0-0-0-0-0-0-0-0-0-|

E|-1-1/3-3-3-3-3-3-3-3-3-3-3-3-3-3-3-3-3-3-3-3-3-3-3-3-5-7-9-9-|

G|-------7-7-7-5---------7-7-7-5---------7-7-7-5---------------|
D|-----7---------7-----7---------7-----7---------7-5-5-5-5-5-5-|
A|-5-5-------------5-5-------------5-5-------------------------|
E|-------------------------------------------------------------|

G|-------------|
D|-5-4-2-2-2\0-|
A|-------------|
E|-------------|

(intrument solo) (same as during verse)

D|-5--5-5--5------5--5-5--5------|

G|---------------------------7-7-7-5---------7-7-7-5---|
D|-2-2-2-2-2-5-5-5-5-5-----7---------7-----7---------7-|
A|---------------------5-5-------------5-5-------------|
E|-----------------------------------------------------|

G|------------------------------------|
D|------------------------------------|
A|-7-7-7-7-7-10-10-10-10-10-----------|
E|--------------------------3-5-7-9-9-|

REST

E|-1-1/3-3-3-3-3-3-3-3-3-3-3-3-3-3-3-3-3-3-3-3-3-3-3-3-3-5-7-9-9-|

G|-------7-7-7-5---------7-7-7-5---------7-7-7-5---------------|
D|-----7---------7-----7---------7-----7---------7-5-5-5-5-5-5-|
A|-5-5-------------5-5-------------5-5-------------------------|
E|-------------------------------------------------------------|

G|-------------|
D|-5-4-2-2-2-0-|
A|-------------|
E|-------------|

main part of verse til ending.

i'm pretty sure this is right. if anything's wrong please change it.

Comments about this tab

No comments/corrections found. Add your own

Complimentary Christian Ringtones
Dadamobile and CGR have teamed up to bring your favorite Christian artists right to your phone. Sign up today and get 10 complementary ringtones!
Tab Country
Did you know CGR has a sister site w/ country guitar tabs? Well we do! Its called Tab Country. It has a great archive with a lot of country tabs.
Rockin Tabs
Are you looking for a site that has rock guitar tabs? Then Rockintabs.com is the place for you. It is a budding site with many rock guitar tabs. Submit your tab today.
Tab Gallery
Tab Gallery has a compilation of christian, rock, and country tabs all in one place. Come visit us.