Bass Tabs
(THIRD DAY) OR BY ARTIST NAME (JENNIFER KNAPP)
0-9|A|B|C|D|E|F|G|H|I|J|K|L|M|N|O|P|Q|R|S|T|U|V|W|X|Y|Z

Join Us Today!

Don't strum alone...
be a part of the largest online Christian music community. Browse thousands of guitar tabs and chat w/ musicians like yourself.


It's Free!

This tab has been rated a 4.00 out of 5 for accuracy. (2 votes)Sorry, but you must be logged in to rate this tab.
Click here to log-in, or you can click here to register.
(Registration is free)

All songs owned by Integrity and Brentwood-Benson are used by permission. If you make copies of any song on this website, be sure to report your usage to CCLI.
Submitted by: bassboy31

Artist: Third Day
Song:Ive Always Loved You
Album:Time
tabber:bassboy31
(ive played this song a hundred times and most people get it all right except 
Tai plays extra and i wanted that in there too)

Intro
(Let Guitar Play intro threw once)

G-------------------
D---------7-6--7-6--                1
A----4/7-6----------
E------------------7
Verse 1
G----------------------------------
D----7-6--7-6----------------------           2X
A-7-6------------------------------
E------------------7---------------
Chorus 1
G------------------------------------
D---6--------------------------------      2X
A-4----7----6------4-----------------
E------------------------------------

G-------------------
D---------7-6--7-6--                1
A----4/7-6----------
E------------------7

Verse2
G----------------------------------
D----7-6--7-6----------------------           2X
A-7-6------------------------------
E--------------7----77----7--77
Chorus
G---------------------------------
D-----7---------------------------     2X
A-44---7----76--------------------
E----------------------------------
chorus extensio
G---------------------------------------------
D-----7---------------------------76----------     1X
A-44---7----76------4--44--4--44--------------
E------------------------------------7-77-7-77
Verse 1
G----------------------------------
D----7-6--7-6----------------------           X
A-7-6------------------------------
E------------------7---------------



(Verse part)
(Refrain part 2X)
(Verse Part/ Outro)

Comments about this tab

kaylajay jane - 2004-03-23

chord corrections from other listed chords.
Children Of the World

V1:
F Fmaj7 Eb
Every life, every beating heart Has a searching soul inside
Db Cm
Ever needing, ever seeking out The meaning to life
F Bbmaj7 Eb
I refuse to believe that we're only here to live and die
Ab2 Cm
In the futile days of a faithless haze
Gm Csus F
Never asking why, why would I
Gm C7 F
When I've felt the hand of eternity
Bb6 Csus Eb
It's a legacy I will leave, I want to leave

CH 1:
Bb
For the children of the world
Eb
Every single little boy and girl
F
Heaven plants a special seed
Gm Eb
And we must have faith for these

V2:
Bb Bbmaj7
I will stand for the truth I've seen
Bb
So the truth is seen in me
Ab2 Cm
I will give from the source of love
Gm Csus F
So all that I believe is handed down
Gm C7 F
For the road that's yet to be travelled on
Bb6 Csus Eb
By the ones who will carry on, I'll carry on

Ch 2:
Bb
For the children of the world
Eb
Every single little boy and girl
F
Heaven plants a special seed
Gm Bb
And we must have faith for these

Red and yellow, black and white
Eb
They are precious in the Father's eyes
F
Like the Father may we see
Gm Eb
That they have a destiny, yeah
Cm Eb F
And give them the light of love to lead

CODA
Dm G C
Through the darkness around us now
Dm G Bb
To a place where hope is found


(SING 2nd chorus now once with basic / // //, This is the instru part at the end)
ONE CHORD BEAT

2ND CHORUS REPEATED
[]
Bb
For the children of the world
Eb
Every single little boy and girl
F
Heaven plants a special seed
Gm Bb
And we must have faith for these
Eb Bb
Red and yellow, black and white
Eb
They are precious in the Father's eyes
F
Like the Father may we see
Gm RPT once from []
That they have a destiny

ending:
Cm Eb F
And give them the light of love to lead

Bb2 Bb
For the children of the world

from kayjay348@hotmail.com


Add a comment/correction

Complimentary Christian Ringtones
Dadamobile and CGR have teamed up to bring your favorite Christian artists right to your phone. Sign up today and get 10 complementary ringtones!
Tab Country
Did you know CGR has a sister site w/ country guitar tabs? Well we do! Its called Tab Country. It has a great archive with a lot of country tabs.
Rockin Tabs
Are you looking for a site that has rock guitar tabs? Then Rockintabs.com is the place for you. It is a budding site with many rock guitar tabs. Submit your tab today.
Tab Gallery
Tab Gallery has a compilation of christian, rock, and country tabs all in one place. Come visit us.