Bass Tabs
(THIRD DAY) OR BY ARTIST NAME (JENNIFER KNAPP)
0-9|A|B|C|D|E|F|G|H|I|J|K|L|M|N|O|P|Q|R|S|T|U|V|W|X|Y|Z

Join Us Today!

Don't strum alone...
be a part of the largest online Christian music community. Browse thousands of guitar tabs and chat w/ musicians like yourself.


It's Free!

This tab has been rated a 4.80 out of 5 for accuracy. (5 votes)Sorry, but you must be logged in to rate this tab.
Click here to log-in, or you can click here to register.
(Registration is free)

All songs owned by Integrity and Brentwood-Benson are used by permission. If you make copies of any song on this website, be sure to report your usage to CCLI.
Submitted by: schiveradel~

Trading My Sorrows
Darell Evans

This is in A(I like it better that way)(you get to play the fun part of your bass..)
(h=hammer on, s=slide)

Intro:
A
|---------11-11-|--14-14--13-13-|---------11-11-|--14-14--16-16-|
|--11-11--12-12-|--16-16--14-14-|--11-11--12-12-|--16-16--18-18-|
|--12-12--------|---------------|--12-12--------|---------------|
|---------------|---------------|---------------|---------------|

|--------11-11-|--14-14--13-13-|---------11-11-|--14-14--13-13-|
|-11-11--12-12-|--16-16--14-14-|--11-11--12-12-|--16-16--14-14-|
|-12-12--------|---------------|--12-12--------|---------------|
|--------------|---------------|---------------|---------------|



Chorus: (play 4 times)
||--------11-11-|--14-14--13-13-|---------11-11-|--14-14--16-16-|
||*11-11--12-12-|--16-16--14-14-|--11-11--12-12-|--16-16--18-18-|
||*12-12--------|---------------|--12-12--------|---------------|
||--------------|---------------|---------------|---------------|


|--18-18--14-14-|--14-14--13-13-|---------11-11-|--14-14--13-13-||
|--19-19--16-16-|--16-16--14-14-|--11-11--12-12-|--16-16--14-14*||
|---------------|---------------|--12-12--------|--------------*||
|---------------|---------------|---------------|---------------||

Repeat until 'joy comes in the morning' bit:

|---------------|---------------|---------------|---------------|
|---------------|---------------|---------------|---------------|
|---------------|---7--7--7--7--|--7s10--10-10--|-5-5-5-5-5-5-5-|
|--0------------|---------------|---------------|---------------|

(main theme:)

||--------------|---------------|---------------|-----------2---|
||*---0-------2-|--4-2----2-----|----0-------2--|-4-4-2-2h4---4-|
||*-0----2h4----|-----------2---|--0----2h4-----|---------------|
||--------------|---------------|---------------|---------------|


|---------------|---------------|---------------|---------------||
|----0--------2-|--4-4--2-------|----0-------2--|--4-4--2------*||
|--0----2h4-----|---------------|--0----2h4-----|--------------*||
|---------------|---------------|---------------|---------------||


(Yes Lord) play 4 times
||----------7---|--11-11----9---|-----------7---|--11-11---13---|
||*--7--7-------|---------------|---7--7--------|---------------|
||*-------------|---------------|---------------|---------------|
||--------------|---------------|---------------|---------------|


|-----------7---|---11-11---9---|-----------7---|--11-11---13---||
|---7--7--------|---------------|---7--7--------|--------------*||
|---------------|---------------|---------------|--------------*||
|---------------|---------------|---------------|---------------||


(Same as before- the joy comes in the morning -part)

                                          (eigth notes)
||--------------|---------------|----------------|--------------|
||--------------|---------------|----------------|--------------|
||--------------|--7--7--7--7---|1010101010101010|-5-5-5-5-5-5-5|
||--0-----------|---------------|----------------|--------------|



Play 2 times:
||--------------|---------------|---------------|-----------2---|
||*---0-------2-|--4-2----2-----|----0-------2--|-4-4-2-2h4---4-|
||*-0----2h4----|-----------2---|--0----2h4-----|---------------|
||--------------|---------------|---------------|---------------|


|---------------|---------------|---------------|---------------||
|----0--------2-|--4-4--2-------|----0-------2--|--4-4--2------*||
|--0----2h4-----|---------------|--0----2h4-----|--------------*||
|---------------|---------------|---------------|---------------||


Play 2 times
||--------------|---------------|---------------|----------------||
||*-----00000---|--444----------|------00000----|--444--66666---*||
||*-000---------|--------22222--|--000----------|---------------*||
||--------------|---------------|---------------|----------------||

Little bass solo at the end:

|--------9-----11po9------------|
|--9s11----11--------11--9------|
|--------------------------9-7--|
|-------------------------------|


Hope you like it!.. It's as close to the original as I've seen so far:)
--glad to pass on one of my favorite songs--


Comments about this tab

No comments/corrections found. Add your own

Complimentary Christian Ringtones
Dadamobile and CGR have teamed up to bring your favorite Christian artists right to your phone. Sign up today and get 10 complementary ringtones!
Tab Country
Did you know CGR has a sister site w/ country guitar tabs? Well we do! Its called Tab Country. It has a great archive with a lot of country tabs.
Rockin Tabs
Are you looking for a site that has rock guitar tabs? Then Rockintabs.com is the place for you. It is a budding site with many rock guitar tabs. Submit your tab today.
Tab Gallery
Tab Gallery has a compilation of christian, rock, and country tabs all in one place. Come visit us.