Bass Tabs
(THIRD DAY) OR BY ARTIST NAME (JENNIFER KNAPP)
0-9|A|B|C|D|E|F|G|H|I|J|K|L|M|N|O|P|Q|R|S|T|U|V|W|X|Y|Z

Join Us Today!

Don't strum alone...
be a part of the largest online Christian music community. Browse thousands of guitar tabs and chat w/ musicians like yourself.


It's Free!

Ghoti Hook - I Love Rock and Roll

This tab has not yet been rated for accuracy.Sorry, but you must be logged in to rate this tab.
Click here to log-in, or you can click here to register.
(Registration is free)

All songs owned by Integrity and Brentwood-Benson are used by permission. If you make copies of any song on this website, be sure to report your usage to CCLI.
+------------------------------------------+
\  Artist     :  Ghoti Hook                 \
/  Song       :  I Love Rock And Roll       /
\  Instrument :  Bass                       \
/  Tabbed by  :  Mike!    /
\___________________________________________\

Intro:
G-|-----------------------|
D-|-----------------------| \  x2
A-|-5-5--5-5--------------| /
E-|----------1-3-3--5-5-1-|

G-|--------------------------|
D-|--------------------------|
A-|-5-5--5-5--5-5--5-3-------|
E-|--------------------5-5-1-|

G-|---------------------------------------------------------------------|
D-|---------------------------------------------------------------------|
A-|-5-5--5-5--5-5--5-3--------5-5--5-5-------5-3------------------5-5---|
E-|--------------------5-5-1------------5-5------5-5-1--3-3--5-5------3-|
I saw her dancin' there by the record machine 
I knew she must a been about seventeen 
The beat was goin' strong 
Playin' my favorite song 
An' I could tell it wouldn't be long 
Till she was with me, yeah me,
An' I could tell it wouldn't be long 
Till she was with me, yeah me, singin' 

G-|-----------------------|
D-|-----------------------|
A-|-5-5--5-5--------------|
E-|----------1-3-3--5-5-1-|
I love rock n' roll 
So put another dime in the jukebox, baby 
I love rock n' roll 
So come an' take your time an' dance with me
G-|--------------------------|
D-|--------------------------|
A-|-5-5--5-5--5-5--5-3-------|
E-|--------------------5-5-1-|

G-|---------------------------------------------------------------------|
D-|---------------------------------------------------------------------|
A-|-5-5--5-5--5-5--5-3--------5-5--5-5-------5-3------------------5-5---|
E-|--------------------5-5-1------------5-5------5-5-1--3-3--5-5------3-|
She smiled so I got up and' asked for her name 
That don't matter, she said, 
'Cause it's all the same 
Said can I take you home where we can be alone 
An' next we were movin' on 
She was with me, yeah me 
Next we were movin' on 
She was with me, yeah me, singin' 

G-|-----------------------------------------------------|
D-|-----------------------------------------------------|
A-|-5-5-5-5-----------------5-5-5-5-----------------5---|
E-|---------3-3-3-3-5-5-5-5---------3-3-3-3-5-5-5-5---5-|
I love rock n' roll 
So put another dime in the jukebox, baby 
I love rock n' roll 
So come an' take your time an' dance with me

G-|-------------------------------------------------|
D-|-------------------------------------------------|
A-|-5-5-5-5-5-5-5-5-5-5-5-5-5-5-5-5-5-5-5-5-5-5-5-5-|
E-|-------------------------------------------------|

G-|----------------------------------------------------------------------|
D-|----------------------------------------------------------------------|
A-|-5-5-5-5-5-5-5-5---------------------------------5-5-5-5-5-5-5--------|
E-|-----------------5-5-5-5-5-5-5-3-3-5-5-5-5-5-5-5---------------3-3-3-3|
I saw her dancin' there by the record machine 
I knew she must a been about seventeen 
The beat was goin' strong 
Playin' my favorite song 
An' I could tell it wouldn't be long 
Till she was with me, yeah me,
An we'll be movin' on 
An' singin' that same old song 
Yeah with me, singin' 

I love rock n' roll 
So put another dime in the jukebox, baby 
I love rock n' roll 
So come an' take your time an' dance with me
I love rock n' roll 
So put another dime in the jukebox, baby 
I love rock n' roll 
So come an' take your time an' dance with me

G-|-------------------------------------------------|
D-|-------------------------------------------------|
A-|-5-5-5-5-5-5-5-5---------------------------------|
E-|-----------------3-3-3-3-3-3-3-3-5-5-5-5-5-5-5-5-|
I love rock n' roll 
So put another dime in the jukebox, baby 
I love rock n' roll 
So come an' take your time an' dance with me
I love rock n' roll 
So put another dime in the jukebox, baby 
I love rock n' roll 
So come an' take your time an' dance with me

Comments about this tab

Beyer413 - 2005-01-13

Cool tab, it's completely right, but can someone explain the song? It's just kinda there.


Kutless Fan - 2005-02-18

The song is at the end of the Underdog CD, telling us that it's the end of the CD. That's all there is to it.


hpy-monkey1213 - 2005-08-15

it took me a while to figure out what the song was saying but i still think it is for at an end of a concert --- can somebody tell me please???? although,GREAT GREAT song ;^)


amanda23 - 2005-08-23

what this song means is that after the song and/or the show will u give ur life fully to God. Though it was great u have to make that decsion. only u not ur friends just u can make that decsion. U have that spirit of God that night but don't let it be over for u. That is what i think it means.


swimmer009 - 2006-07-17

wow thats pretty good id have to go with you sweet tab man i was just listening to it and im like this is a cool song i think i'll learn it and thancx to u i can withought figuring it out formyself lol thanx my peace
god bless


louco86 - 2008-08-14

Thank you so much for the tabs!!!!!!!!


Add a comment/correction

Complimentary Christian Ringtones
Dadamobile and CGR have teamed up to bring your favorite Christian artists right to your phone. Sign up today and get 10 complementary ringtones!
Tab Country
Did you know CGR has a sister site w/ country guitar tabs? Well we do! Its called Tab Country. It has a great archive with a lot of country tabs.
Rockin Tabs
Are you looking for a site that has rock guitar tabs? Then Rockintabs.com is the place for you. It is a budding site with many rock guitar tabs. Submit your tab today.
Tab Gallery
Tab Gallery has a compilation of christian, rock, and country tabs all in one place. Come visit us.