Bass Tabs
(THIRD DAY) OR BY ARTIST NAME (JENNIFER KNAPP)
0-9|A|B|C|D|E|F|G|H|I|J|K|L|M|N|O|P|Q|R|S|T|U|V|W|X|Y|Z

Join Us Today!

Don't strum alone...
be a part of the largest online Christian music community. Browse thousands of guitar tabs and chat w/ musicians like yourself.


It's Free!

This tab has been rated a 3.50 out of 5 for accuracy. (2 votes)Sorry, but you must be logged in to rate this tab.
Click here to log-in, or you can click here to register.
(Registration is free)

All songs owned by Integrity and Brentwood-Benson are used by permission. If you make copies of any song on this website, be sure to report your usage to CCLI.
Submitted by: beloved Again

Relient K
For The Moments I Feel Faint
The Anatomy of the Tongue in Cheek
©2001 Gotee Records
Tabbed By: Levi Tijerina

Ok, This my first tab…I’m sure it’s  95% correct though…it’s pretty simple, just listen for the guitar piece and just play along, much thanks to Linus Bowman (Whom I’ve never met) who wrote an awesome guitar tab that I was able to use to help figure this out…


G|----------------------------------------|
D|----------------------------------------|
A|----------------------------------------|
E|-0--------5---------9-----------7-------|

Play that for the whole song except for the bridge, then play

G|----------------------------------------------------|
D|----------------------------------------------------|
A|----------------------------------------------------|
E|-2-----5-----0--------5---------9-----------7-------|

also, if you want some variety, you can play

G|--------------------------------------------------|
D|----2--------7---------(11)-------9---------------|
A|--------------------------------------------------|
E|--------------------------------------------------|
 and then on the bridge, play


G|--------------------------------------------------------------|
D|----4---7-------2--------7---------(11)-------9---------------|
A|--------------------------------------------------------------|
E|--------------------------------------------------------------|

that's it, hope it's easy for you...God bless!

Comments about this tab

No comments/corrections found. Add your own

Complimentary Christian Ringtones
Dadamobile and CGR have teamed up to bring your favorite Christian artists right to your phone. Sign up today and get 10 complementary ringtones!
Tab Country
Did you know CGR has a sister site w/ country guitar tabs? Well we do! Its called Tab Country. It has a great archive with a lot of country tabs.
Rockin Tabs
Are you looking for a site that has rock guitar tabs? Then Rockintabs.com is the place for you. It is a budding site with many rock guitar tabs. Submit your tab today.
Tab Gallery
Tab Gallery has a compilation of christian, rock, and country tabs all in one place. Come visit us.