Bass Tabs
(THIRD DAY) OR BY ARTIST NAME (JENNIFER KNAPP)
0-9|A|B|C|D|E|F|G|H|I|J|K|L|M|N|O|P|Q|R|S|T|U|V|W|X|Y|Z

Join Us Today!

Don't strum alone...
be a part of the largest online Christian music community. Browse thousands of guitar tabs and chat w/ musicians like yourself.


It's Free!

Ghoti Hook - Gimme A Chance

This tab has not yet been rated for accuracy.Sorry, but you must be logged in to rate this tab.
Click here to log-in, or you can click here to register.
(Registration is free)

All songs owned by Integrity and Brentwood-Benson are used by permission. If you make copies of any song on this website, be sure to report your usage to CCLI.
+------------------------------------------+
\  Artist     :  Ghoti Hook                 \
/  Song       :  Gimme A Chance             /
\  Instrument :  Bass                       \
/  Tabbed by  :  Mike!    /
\___________________________________________\

G-|-------------------------------------------------------------------|
D-|-------------------------------------------------------------------|
A-|-------------------7-7-7-7-7-5-7-7-7-5-5-5-5-5-3-5-5-5-------------|
E-|-5-5-5-5-5-3-5-5-5-------------------------------------5-5-5-5-3-5-|
I won’t look back.
That’s not for me.
Please don’t take what I say literally.
I know I’m bad,
Gross slimy scum,
And I feel rotten for what I have done.

G-|-----------------------------------------------------------------|
D-|-----------------------------------------------------------------|
A-|---------------------------------7-7-7-5-7-7-7-5-7-7-7-5-7-7-7-5-|
E-|-5-5-5-3-5-5-5-3-5-5-5-3-5-5-5-3---------------------------------|
=====================================================================
G-|-----------------------------------------------------------------|
D-|-----------------------------------------------------------------|
A-|-5-5-5-3-5-5-5-3-5-5-5-3-5-5-5-3---------------------------------|
E-|---------------------------------5-5-5-3-5-5-5-3-5-5-5-3-5-5-5-3-|
I won’t look back.
That’s not for me.
Please don’t take what I say literally.
I know I’m bad,
Gross slimy scum,
And I feel rotten for what I have done.

G-|--------------|
D-|--------------|
A-|-5--5--5------|
E-|-----------5~-|
Gimme a... Gimme a... Gimme a chance--don’t turn away.
Gimme a... Gimme a... Gimme a chance--don’t turn away.

G-|-----------------------------------------------------------------|
D-|-----------------------------------------------------------------|
A-|---------------------------------7-7-7-5-7-7-7-5-7-7-7-5-7-7-7-5-|
E-|-5-5-5-3-5-5-5-3-5-5-5-3-5-5-5-3---------------------------------|
=====================================================================
G-|-----------------------------------------------------------------|
D-|-----------------------------------------------------------------|
A-|-5-5-5-3-5-5-5-3-5-5-5-3-5-5-5-3---------------------------------|
E-|---------------------------------5-5-5-3-5-5-5-3-5-5-5-3-5-5-5-3-|
You could leave now,
That’s up to you.
I really hope that I’ll change that view.
Another chance
To right the past.
This one request is all I ask.

G-|--------------|
D-|--------------|
A-|-5--5--5------|
E-|-----------5~-|
Gimme a... Gimme a... Gimme a chance--don’t turn away.
Gimme a... Gimme a... Gimme a chance--don’t turn away.

G-|--------------------------|
D-|--------------------------|
A-|-9~----9~-5-5-5-5-7-7-7-7-|
E-|----5~--------------------|
Please don’t, please don’t go.
Please don’t, please don’t go.

G-|---------------------------------|      |---|
D-|---------------------------------| \ x4 |---|
A-|-7-7-7-7-5-5-5-5-4-4-4-4---------| /    |-7-|
E-|-------------------------7-7-7-7-|      |---|

G-|-------------------------------------------------|
D-|-------------------------------------------------|
A-|-------------------------------------------------|
E-|-5-5-5-7-7-7-5-5-5-7-7-7-5-5-5-7-7-7-5-5-5-5-5-5-|
Just take me back.
G-|-------------------------------------------------|
D-|-------------------------------------------------|
A-|-7-7-7-9-9-9-7-7-7-9-7-9-7-7-7-9-9-9-7-7-7-7-5-7-|
E-|-------------------------------------------------|
I know I’m dumb,
G-|-------------------------------------------------|
D-|-------------------------------------------------|
A-|-5-5-5-7-7-7-5-5-5-7-7-7-5-5-5-7-7-7-5-5-5-5-5-5-|
E-|-------------------------------------------------|
Looking out for me, myself
G-|---------------------------|
D-|---------------------------|
A-|---------------------------|
E-|-5-5-5-7-7-7-5-5-5-7-7-7-5-|
numero one.
G-|-------------------------------------------------|
D-|-------------------------------------------------|
A-|-------------------------------------------------|
E-|-5-5-5-7-7-7-5-5-5-7-7-7-5-5-5-7-7-7-5-5-5-5-5-5-|
But if you say
G-|-------------------------------------------------|
D-|-------------------------------------------------|
A-|-7-7-7-9-9-9-7-7-7-9-7-9-7-7-7-9-9-9-7-7-7-7-5-7-|
E-|-------------------------------------------------|
You’ll still love me,
G-|-------------------------------------------------|
D-|-------------------------------------------------|
A-|-7-7-7-9-9-9-7-7-7-9-7-9-7-7-7-9-9-9-7-7-7-7-5-7-|
E-|-------------------------------------------------|
I’ll be the friend that you want
G-|----------|
D-|----------|
A-|----------|
E-|-5--5--5~-|
me to be.

Comments about this tab

No comments/corrections found. Add your own

Complimentary Christian Ringtones
Dadamobile and CGR have teamed up to bring your favorite Christian artists right to your phone. Sign up today and get 10 complementary ringtones!
Tab Country
Did you know CGR has a sister site w/ country guitar tabs? Well we do! Its called Tab Country. It has a great archive with a lot of country tabs.
Rockin Tabs
Are you looking for a site that has rock guitar tabs? Then Rockintabs.com is the place for you. It is a budding site with many rock guitar tabs. Submit your tab today.
Tab Gallery
Tab Gallery has a compilation of christian, rock, and country tabs all in one place. Come visit us.