Bass Tabs
(THIRD DAY) OR BY ARTIST NAME (JENNIFER KNAPP)
0-9|A|B|C|D|E|F|G|H|I|J|K|L|M|N|O|P|Q|R|S|T|U|V|W|X|Y|Z

Join Us Today!

Don't strum alone...
be a part of the largest online Christian music community. Browse thousands of guitar tabs and chat w/ musicians like yourself.


It's Free!

This tab has not yet been rated for accuracy.Sorry, but you must be logged in to rate this tab.
Click here to log-in, or you can click here to register.
(Registration is free)

All songs owned by Integrity and Brentwood-Benson are used by permission. If you make copies of any song on this website, be sure to report your usage to CCLI.
Submitted by: delorean41690

Hoopes I Did It Again
Relient K
from "Two Lefts Don't Make a Right...But Three Do"
Tabbed by: Ben Heckel

This is a pretty standard Relient K song, but it has some extra fast strumming,
so if you can't strum that fast, this might get kind of tough.  Just the same,
you can probably fudge it until then by holding the notes, but you might notice
the fast strumming on the song. Aside from the speed it's a pretty easy song. 
The sections of the bassline all flow together pretty much through the song, 
so even if I split up the parts of the bassline by verse, etc., chances are 
you'll be playing through to the next section.  Listen to the song to see what  
I mean and get the rhythm. 10 means ten here, not one and zero.

Intro and verse
G|----------------------------------------------------------------------------
D|----------------------------------------------------------------------------
A|--------77777777--------------------------------77777777--------------------
E|55555555--------77777777101010101010101055555555--------77777777101010101010

G|----------------------------------------------------------------------------
D|----------------------------------------------------------------------------
A|1010--------77777777--------------------------------77777777----------------
E|----55555555--------77777777101010101010101055555555--------7777777710101010

G|--------
D|--------
A|--------
E|10101010

(Because a small town...)
G|-----------------------------------------------------------------------------
D|-----------------------------------------------------------------------------
A|5555555577777777----------------5555555577777777----------------5555555577777
E|----------------5555555533333333----------------5555555533333333-------------

G|---
D|---
A|777
E|---

Pre-Chorus
G|-----------------------------------------
D|-----------------------------------------
A|---77----------77-------55555555-77777777
E|55----------55---------------------------

Chorus
G|--------------------------------------------------------
D|--------------------------------------------------------
A|--------7--5-5-5-5-7-7-7---------7-7-77-5-555555-77777--
E|5-5-5-5------------------5-55555----------------------45 

(keep strumming the 5, because here you repeat the intro, verse, and "Because a
small town" sections, and play this:)

G|------------------------------------------------------------------------------
D|------------------------------------------------------------------------------
A|------77-77-------------77-77-------5555555577777777----------------55555555-7
E|55-55-------------55-55-----------------------------5555555533333333----------

G|-----
D|-----
A|77777
E|-----

Repeat Chorus

Bridge (Dan Bikitus said I'm shallow...) (Play these notes individually, lifting
your finger from the fret between each strum...)
G|--------------------------------------------------------------------
D|7-7-7-7-7-7-7-7-4-4-4-4-4-4-4-4-0-0-0-0-0-0-0-0-2-2-2-2-5-5-5-5-7--4
A|--------------------------------------------------------------------
E|--------------------------------------------------------------------

Outro (Because they always say in Canton...)
G|-----------------------------------------------------------------------------
D|77777777777777774444444444444444000000000000000022222222555555557777777777777
A|-----------------------------------------------------------------------------
E|-----------------------------------------------------------------------------

G|----------------------------------------------------
D|7774444444444444444000000000000000022222222555555557 (hold the 7 to the end)
A|----------------------------------------------------
E|----------------------------------------------------

Comments about this tab

No comments/corrections found. Add your own

Complimentary Christian Ringtones
Dadamobile and CGR have teamed up to bring your favorite Christian artists right to your phone. Sign up today and get 10 complementary ringtones!
Tab Country
Did you know CGR has a sister site w/ country guitar tabs? Well we do! Its called Tab Country. It has a great archive with a lot of country tabs.
Rockin Tabs
Are you looking for a site that has rock guitar tabs? Then Rockintabs.com is the place for you. It is a budding site with many rock guitar tabs. Submit your tab today.
Tab Gallery
Tab Gallery has a compilation of christian, rock, and country tabs all in one place. Come visit us.