Bass Tabs
(THIRD DAY) OR BY ARTIST NAME (JENNIFER KNAPP)
0-9|A|B|C|D|E|F|G|H|I|J|K|L|M|N|O|P|Q|R|S|T|U|V|W|X|Y|Z

Join Us Today!

Don't strum alone...
be a part of the largest online Christian music community. Browse thousands of guitar tabs and chat w/ musicians like yourself.


It's Free!

This tab has not yet been rated for accuracy.Sorry, but you must be logged in to rate this tab.
Click here to log-in, or you can click here to register.
(Registration is free)

All songs owned by Integrity and Brentwood-Benson are used by permission. If you make copies of any song on this website, be sure to report your usage to CCLI.
Submitted by: delorean41690

Steve Taylor
Jim Morrison's Grave
from "I Predict 1990"
 1987 Soylent Tunes 


My first tab!  WOOHOO!  This is a really cool song.  It can get kind of tricky 
at times, but it's not too bad (just the same, I'm still practicing).  You'll
want to strum fairly fast on this song, but not as fast as, say, some Relient K 
songs.  The bass is pretty clear, so even if you just listen to the beginning of
the song, you should get an idea of the rhythm and timing and everything.  I'll 
try to get that across in the tab itself.  The longer sections of strumming are
approximate in length, but between hearing the song and reading the tab, it 
should make sense.  Hope this is understandable, and that you have a fun time 
playing this song!

Intro (repeat 3x)
G|-------------------------------
D|----------------------6--------
A|333333-----3333------6-----1111
E|------1-111----444444--4444----

Verse 1 (Intro flows directly into this, so you go from 1 to 3)

D-----------------------------------------------------6------------------------
A3333333333333333--------33333333--------------------6-----11113333333333333333
E----------------11111111--------44444444444444444444--4444--------------------

D|------------------------------------------6-
A|3--------33333333------------------------6--
E|-11111111--------444444444444444444444444--4 (hold this note until chorus)

Chorus (same as intro, except repeat only 1x instead of 3, and then go straight
into the verse)

Verse 2 and Second Chorus

D|-----------------------------------------------------------------------------
A|3333333333333333--------33333333------------------------------113333333333333
E|----------------11111111--------444444444444444444444444444444---------------

D|--------------------------------------------6--------------------------6-----
A|333--------33333333------------------------6-----333333-----3333------6-----1
E|---11111111--------444444444444444444444444--4---------1-111----444444--4444-

D|-------------------------6---------
A|111333333-----3333------6-----11113 (hold the 3)
E|---------1-111----444444--4444-----

Bridge (First there is an instrumental part without bass, then the drums will 
kick in, and the bass starts up)

D|--------------------------------------------------------------------666------
A|444444------4444--------------2222444444------4444---------------------4444--
E|------222222----55555520555555----------222222----555555205555552222-------22

D|-----------------------666--------------------77777777----------------------7
A|--44440000000--00002222---4444----444400000000--------444444-----4444------7-
E|22-----------20---------------2222--------------------------2-222----555555--

D|--------666--------------------7----------------------------------------666--
A|----2222---4444000044/12------7-----2222444444------4444------------2222---44
E|5555--------------------555555--5555----------222222----555555205555---------

D|----------------------------
A|44----44440000000--000022224 (hold the 4)
E|--2222-----------20---------

Outro (no bass for a moment, then it kicks in after a moment.  It's fairly easy
to hear, so you should be able to hear where it starts.  Play this part slow, 
then speed up gradually.  I'll try to get this across in the tab.)

Starting here, repeat until the song fades out.-------------------------|  
                                                                        | 
D|----------------7--------------------7------------------------------7--------
A|4-------4--77777---2---4-----4--77777----2--4-4-4-4----4-4-4-4-7-7-7---2-4444
E|----2------------5--------2-----------5--------------2---------------5-------

D|--------------7------
A|4---444-777777-----22
E|--2------------5-----

Comments about this tab

No comments/corrections found. Add your own

Complimentary Christian Ringtones
Dadamobile and CGR have teamed up to bring your favorite Christian artists right to your phone. Sign up today and get 10 complementary ringtones!
Tab Country
Did you know CGR has a sister site w/ country guitar tabs? Well we do! Its called Tab Country. It has a great archive with a lot of country tabs.
Rockin Tabs
Are you looking for a site that has rock guitar tabs? Then Rockintabs.com is the place for you. It is a budding site with many rock guitar tabs. Submit your tab today.
Tab Gallery
Tab Gallery has a compilation of christian, rock, and country tabs all in one place. Come visit us.