Bass Tabs
(THIRD DAY) OR BY ARTIST NAME (JENNIFER KNAPP)
0-9|A|B|C|D|E|F|G|H|I|J|K|L|M|N|O|P|Q|R|S|T|U|V|W|X|Y|Z

Join Us Today!

Don't strum alone...
be a part of the largest online Christian music community. Browse thousands of guitar tabs and chat w/ musicians like yourself.


It's Free!

Ghoti Hook - Friends

This tab has not yet been rated for accuracy.Sorry, but you must be logged in to rate this tab.
Click here to log-in, or you can click here to register.
(Registration is free)

All songs owned by Integrity and Brentwood-Benson are used by permission. If you make copies of any song on this website, be sure to report your usage to CCLI.
+------------------------------------------+
\  Artist     :  Ghoti Hook                 \
/  Song       :  Friends                    /
\  Instrument :  Bass                       \
/  Tabbed by  :  Mike!    /
\___________________________________________\

**** Notes in () are played on the second time thru

Guitar plays intro once alone, then bass comes in with drums
G-|-------------------------------------------------|
D-|-------------------------------------------------|
A-|---2-2-----------5-5-5-5-5-5-5-5-5-5-5-5-5-5-5-5-|
E-|-3-----0--5--5-5---------------------------------|

G-|-----------------------------------------------------------------|
D-|----------------(2)2)2)2)2)2)------------------------------------| \ x2
A-|---------2-2-2-2-----------------------------5-5-5-5-5-5-5-5-5-5-| /
E-|-3-3-3-3---------0-0-0-0-0-0-5-5-5-5-5-5-5-5---------------------|

G-|-----------------------------------------------------------------|
D-|----------------(2)2)2)2)2)2)------------------------------------|
A-|---------2-2-2-2-----------------------------5-5-5-5-5-5-5-5-5-5-|
E-|-3-3-3-3---------0-0-0-0-0-0-5-5-5-5-5-5-5-5---------------------|
Packing up the dreams God's planted
in the fertile soil of you
Can't believe the hopes He's granted
means a chapter in our lives is through
G-|-------------------------------------------------|
D-|-------------------------------------------------|
A-|-5-5-5-5-5-5-------------------------3-3-3-3-3-3-|
E-|-------------0-0-0-0-0-0-5-5-5-5-5-5-------------|
But we'll keep you close as always
It won't even seem you've gone
G-|-------------------------------------------------------------------------|
D-|-------------------------------------------------------------------------|
A-|-------------2-2-2-2-2-2-------------------------5-5-5-5-5-5-------------|
E-|-3-3-3-3-3-3-------------0-0-0-0-0-0-5-5-5-5-5-5-------------3-3-3-3-3-3-|
Cause our hearts in big and small ways
will keep the love that keeps us strong

G-|---------------------------------------|
D-|---------------------------------------|
A-|---------5-5-5-5-5-3-3-3-3-3-5-5-5-5-5-|
E-|-3-3-3-3-------------------------------|
And friends are friends forever if the Lord's the Lord of them
And a friend will not say never cause the welcome will not end
G-|-------------------------------------------------------------|
D-|-------------------------------------------------------------|
A-|-2-2-2-2-2-2-------------3-3-3-3-3-3-------------5-5-5-5-5-5-|
E-|-------------0-0-0-0-0-0-------------5-5-5-5-5-5-------------|
Though it's hard to let you go, in the Father's hands we know
That a lifetime's not too long
to live as friends

G-|-----------------------------------------------------------------|
D-|----------------(2)2)2)2)2)2)------------------------------------| \ x2
A-|---------2-2-2-2-----------------------------5-5-5-5-5-5-5-5-5-5-| /
E-|-3-3-3-3---------0-0-0-0-0-0-5-5-5-5-5-5-5-5---------------------|

G-|-----------------------------------------------------------------|
D-|----------------(2)2)2)2)2)2)------------------------------------|
A-|---------2-2-2-2-----------------------------5-5-5-5-5-5-5-5-5-5-|
E-|-3-3-3-3---------0-0-0-0-0-0-5-5-5-5-5-5-5-5---------------------|
And with the faith and love God's given
Springing from the hope we know
We will pray the joy you'll live in
is the strength that now you will show
G-|-------------------------------------------------|
D-|-------------------------------------------------|
A-|-5-5-5-5-5-5-------------------------3-3-3-3-3-3-|
E-|-------------0-0-0-0-0-0-5-5-5-5-5-5-------------|
But we'll keep you close as always
It won't even seem you've gone
G-|-------------------------------------------------------------------------|
D-|-------------------------------------------------------------------------|
A-|-------------2-2-2-2-2-2-------------------------5-5-5-5-5-5-------------|
E-|-3-3-3-3-3-3-------------0-0-0-0-0-0-5-5-5-5-5-5-------------3-3-3-3-3-3-|
Cause our hearts in big and small ways
will keep the love that keeps us strong

G-|---------------------------------------|
D-|---------------------------------------|
A-|---------5-5-5-5-5-3-3-3-3-3-5-5-5-5-5-|
E-|-3-3-3-3-------------------------------|
And friends are friends forever if the Lord's the Lord of them
And a friend will not say never cause the welcome will not end
G-|-------------------------------------------------------------|
D-|-------------------------------------------------------------|
A-|-2-2-2-2-2-2-------------3-3-3-3-3-3-------------5-5-5-5-5-5-|
E-|-------------0-0-0-0-0-0-------------5-5-5-5-5-5-------------|
Though it's hard to let you go, in the Father's hands we know
That a lifetime's not too long
to live as friends

G-|-------|
D-|-------|
A-|---4-5-|
E-|-3-----|

G-|---------------------------------------|
D-|---------------------------------------|
A-|---------6-6-6-6-6-4-4-4-4-4-6-6-6-6-6-|
E-|-4-4-4-4-------------------------------|
And friends are friends forever if the Lord's the Lord of them
And a friend will not say never cause the welcome will not end
G-|-------------------------------------------------------------|
D-|-------------------------------------------------------------|
A-|-3-3-3-3-3-3-------------4-4-4-4-4-4-------------6-6-6-6-6-6-|
E-|-------------1-1-1-1-1-1-------------6-6-6-6-6-6-------------|
Though it's hard to let you go, in the Father's hands we know
That a lifetime's not too long

Comments about this tab

No comments/corrections found. Add your own

Complimentary Christian Ringtones
Dadamobile and CGR have teamed up to bring your favorite Christian artists right to your phone. Sign up today and get 10 complementary ringtones!
Tab Country
Did you know CGR has a sister site w/ country guitar tabs? Well we do! Its called Tab Country. It has a great archive with a lot of country tabs.
Rockin Tabs
Are you looking for a site that has rock guitar tabs? Then Rockintabs.com is the place for you. It is a budding site with many rock guitar tabs. Submit your tab today.
Tab Gallery
Tab Gallery has a compilation of christian, rock, and country tabs all in one place. Come visit us.