Bass Tabs
(THIRD DAY) OR BY ARTIST NAME (JENNIFER KNAPP)
0-9|A|B|C|D|E|F|G|H|I|J|K|L|M|N|O|P|Q|R|S|T|U|V|W|X|Y|Z

Join Us Today!

Don't strum alone...
be a part of the largest online Christian music community. Browse thousands of guitar tabs and chat w/ musicians like yourself.


It's Free!

Ghoti Hook - Estevan

This tab has not yet been rated for accuracy.Sorry, but you must be logged in to rate this tab.
Click here to log-in, or you can click here to register.
(Registration is free)

All songs owned by Integrity and Brentwood-Benson are used by permission. If you make copies of any song on this website, be sure to report your usage to CCLI.
+------------------------------------------+
\  Artist     :  Ghoti Hook                 \
/  Song       :  Estevan                    /
\  Instrument :  Bass                       \
/  Tabbed by  :  Mike!    /
\___________________________________________\

Intro:
G-|-----------------|
D-|-----------------| \  x2
A-|----2-2------3-3-| /
E-|-3--------0------|

G-|-----------------------------------------------------|
D-|-----------------------------------------------------| \  x2
A-|-------------2-2-2-2-2-2-------------3-3-3-3-5-5-5-5-| /
E-|-3-3-3-3-3-3-------------0-0-0-0-0-0-----------------|

G-|---------------------------------------------------|
D-|---------------------------------------------------|
A-|-----------2-2-2-2-2-----------3-3-3-3-3-5-5-5-5-5-|
E-|-3-3-3-3-3-----------0-0-0-0-0---------------------|
Once there was a time when I was too naive,
But that was all changed when you set your eyes on me.
You claimed you were a friend--a harmless little touch,
But then my life shattered when that touch was too much.

G-|-----------------------------------------------------------------|
D-|-----------------------------------------------------------------|
A-|-7-7-7-7-7-7-7-7-3-3-3-3-3-3-3-3-----------------5-5-5-5-5-5-5-5-|
E-|---------------------------------3-3-3-3-3-3-3-3-----------------|
I don’t know when I will start to feel again.
The heart inside of me, in pain.
Oh, my memories they burn slowly in my mind.
It’s burning what I have away.

G-|-----------------------------------------------------|
D-|-----------------------------------------------------| \  x2
A-|-------------2-2-2-2-2-2-------------3-3-3-3-5-5-5-5-| /
E-|-3-3-3-3-3-3-------------0-0-0-0-0-0-----------------|

G-|---------------------------------------------------|
D-|---------------------------------------------------|
A-|-----------2-2-2-2-2-----------3-3-3-3-3-5-5-5-5-5-|
E-|-3-3-3-3-3-----------0-0-0-0-0---------------------|
I wrestle with my thoughts becoming more defiled.
For now, there is hate where a love used to reside.
Now I cannot find the strength to lift my head.
Where there was once honor lies depravity instead.

G-|-----------------------------------------------------------------|
D-|-----------------------------------------------------------------|
A-|-7-7-7-7-7-7-7-7-3-3-3-3-3-3-3-3-----------------5-5-5-5-5-5-5-5-|
E-|---------------------------------3-3-3-3-3-3-3-3-----------------|
I don’t know when I will start to feel again.
The heart inside of me, in pain.
Oh, my memories they burn slowly in my mind.
It’s burning what I have away.

G-|------------------|      |-------------------------------|
D-|------------------| \ x3 |-------------------------------|
A-|-3-3-3-3----------| /    |-------------3-3-3-3-5-5-5-5-5-|
E-|----------3-3-3-3-|      |-5-5-5-5-5-5-------------------|
One day, it will shine again.
This cloud will be no longer.
When that day comes, I’ll know why,
Because I’ve been made stronger.

G-|---------------------------------------------------|
D-|---------------------------------------------------|
A-|-----------2-2-2-2-2-----------3-3-3-3-3-5-5-5-5-5-|
E-|-3-3-3-3-3-----------0-0-0-0-0---------------------|
I’m facing what’s ahead by what is in my past.
A terrible chapter for the writer to have grasped.
The trials that seem so hard are hard to comprehend.
I face my life, keeping a' one eye on the end.

G-|-----------------------------------------------------------------|
D-|-----------------------------------------------------------------|
A-|-7-7-7-7-7-7-7-7-3-3-3-3-3-3-3-3-----------------5-5-5-5-5-5-5-5-|
E-|---------------------------------3-3-3-3-3-3-3-3-----------------|
I don’t know when I will start to feel again.
The heart inside of me, in pain.
Oh, my memories they burn slowly in my mind.
It’s burning what I have away.

G-|-----------------------------------------------------|
D-|-----------------------------------------------------| \  x2
A-|-------------2-2-2-2-2-2-------------3-3-3-3-5-5-5-5-| /
E-|-3-3-3-3-3-3-------------0-0-0-0-0-0-----------------|

Comments about this tab

No comments/corrections found. Add your own

Complimentary Christian Ringtones
Dadamobile and CGR have teamed up to bring your favorite Christian artists right to your phone. Sign up today and get 10 complementary ringtones!
Tab Country
Did you know CGR has a sister site w/ country guitar tabs? Well we do! Its called Tab Country. It has a great archive with a lot of country tabs.
Rockin Tabs
Are you looking for a site that has rock guitar tabs? Then Rockintabs.com is the place for you. It is a budding site with many rock guitar tabs. Submit your tab today.
Tab Gallery
Tab Gallery has a compilation of christian, rock, and country tabs all in one place. Come visit us.