Bass Tabs
(THIRD DAY) OR BY ARTIST NAME (JENNIFER KNAPP)
0-9|A|B|C|D|E|F|G|H|I|J|K|L|M|N|O|P|Q|R|S|T|U|V|W|X|Y|Z

Join Us Today!

Don't strum alone...
be a part of the largest online Christian music community. Browse thousands of guitar tabs and chat w/ musicians like yourself.


It's Free!

This tab has been rated a 2.33 out of 5 for accuracy. (3 votes)Sorry, but you must be logged in to rate this tab.
Click here to log-in, or you can click here to register.
(Registration is free)

All songs owned by Integrity and Brentwood-Benson are used by permission. If you make copies of any song on this website, be sure to report your usage to CCLI.
Submitted by: little-man

Blindside - All of Us
Tabbed by Mitchell Ebbott
yurnotsoeviltwin@yahoo.com


h=hammer

To my knowledge, this tab is true to what they do on the CD.
Far better than the other ones Iíve found online, by far.


Verse:

G--------------------------------------------------------------------------
D--------------------------------------------------------------------------
A--3h5---8-----------------------------------------------------------------
E--------------6--5----5-6-5-6-5-1h3---3---1-3---3---1-3--6---6-8-6-8-6----

and repeat

Chorus:

G-------------------------------------------------------|---------------------
D-----------3-2-0--------------------------------------|----------------------
A---5---------------3-1-----0------------------5*----|---0-----------------5*-
E---------------------------------3--1-0--1-0---------|--------3-1-0-1-0------


* On a 5-string, sounds better replaced with B--3--

The stuff after the bar isnít played during the first chorus.  
the bar is right at the big guitar bend

Bridge (I wash my woundsÖ.):

G-------------------------------------------------------------
D-------------------------------------------------------------
A----3h5---/8---7--10--5--3h5---/8-----------------3----
E--------------------------------------------5h6--5-3-------


There you have it.  Itís a great song, so have fun with it!  
If anythingís wrong, just email me at yurnotsoeviltwin@yahoo.com 
and Iíll do my best to fix it.

Comments about this tab

No comments/corrections found. Add your own

Complimentary Christian Ringtones
Dadamobile and CGR have teamed up to bring your favorite Christian artists right to your phone. Sign up today and get 10 complementary ringtones!
Tab Country
Did you know CGR has a sister site w/ country guitar tabs? Well we do! Its called Tab Country. It has a great archive with a lot of country tabs.
Rockin Tabs
Are you looking for a site that has rock guitar tabs? Then Rockintabs.com is the place for you. It is a budding site with many rock guitar tabs. Submit your tab today.
Tab Gallery
Tab Gallery has a compilation of christian, rock, and country tabs all in one place. Come visit us.