Bass Tabs
(THIRD DAY) OR BY ARTIST NAME (JENNIFER KNAPP)
0-9|A|B|C|D|E|F|G|H|I|J|K|L|M|N|O|P|Q|R|S|T|U|V|W|X|Y|Z

Join Us Today!

Don't strum alone...
be a part of the largest online Christian music community. Browse thousands of guitar tabs and chat w/ musicians like yourself.


It's Free!

Ghoti Hook - Earth Angel

This tab has been rated a 4.00 out of 5 for accuracy. (4 votes)Sorry, but you must be logged in to rate this tab.
Click here to log-in, or you can click here to register.
(Registration is free)

All songs owned by Integrity and Brentwood-Benson are used by permission. If you make copies of any song on this website, be sure to report your usage to CCLI.
+------------------------------------------+
\  Artist     :  Ghoti Hook                 \
/  Song       :  Earth Angel                /
\  Instrument :  Bass                       \
/  Tabbed by  :  Mike!    /
\___________________________________________\

Intro:
G-|---------------------------------|      |---|
D-|---------------------------------| \ x2 |---|
A-|-6-4-3-------------------4-4-4-4-| /    |-6-|
E-|-------6-4-4-4-4-1-1-1-1---------|      |---|

G-|-----------------------------------|
D-|-----------------------------------|
A-|-----------------4-4-4-4-6-4-3-----|
E-|-4-4-4-4-1-1-1-1---------------6-4-|
Earth Angel, Earth Angel, will you be mine
G-|-------------------------------3-|
D-|---------------------------3-5---|
A-|-----------------4-4-4-4-6-------|
E-|-4-4-4-4-1-1-1-1-----------------|
My darling, dear, I love you all the time
G-|-----------------------------------------------------|
D-|-----------------------------------------------------|
A-|-----------------4-6---------4-4-4-4-----------------|
E-|-4-4-4-4-1-1-1-1-----4-4-4-4---------4-4-4-4-4-4-4-4-|
I'm just a fool, a fool in love with you

G-|-----------------------------------|
D-|-----------------------------------|
A-|-----------------4-4-4-4-6-4-3-----|
E-|-4-4-4-4-1-1-1-1---------------6-4-|
Earth Angel, Earth Angel, the one I adore
G-|-------------------------------3-|
D-|---------------------------3-5---|
A-|-----------------4-4-4-4-6-------|
E-|-4-4-4-4-1-1-1-1-----------------|
I love you forever, and ever ever more
G-|-----------------------------------------------------|
D-|-----------------------------------------------------|
A-|-----------------4-6---------4-4-4-4-----------------|
E-|-4-4-4-4-1-1-1-1-----4-4-4-4---------4-4-4-4-4-4-4-4-|
I'm just a fool, a fool in love with you

G-|---------------------------------|
D-|---------------------------------|
A-|-4-4-4-4-4-4-4-4-----------------|
E-|-----------------4-4-4-4-4-4-4-4-|
I fell for you, and I knew
The vision of your love's loveliness
And I hope and I pray that someday
G-|---------------------------------|
D-|---------------------------------|
A-|-----------------6-4-3---6-4-3---|
E-|-6-6-6-6-6-6-6-6-------6-------6-|
I'll be the vision of your happy happiness 

G-|-----------------------------------|
D-|-----------------------------------|
A-|-----------------4-4-4-4-6-4-3-----|
E-|-4-4-4-4-1-1-1-1---------------6-4-|
Earth Angel, Earth Angel, will you be mine
G-|-------------------------------3-|
D-|---------------------------3-5---|
A-|-----------------4-4-4-4-6-------|
E-|-4-4-4-4-1-1-1-1-----------------|
My darling, dear, well I love you all the time
G-|-----------------------------------------------------|
D-|-----------------------------------------------------|
A-|-----------------4-6---------4-4-4-4-----------------|
E-|-4-4-4-4-1-1-1-1-----4-4-4-4---------4-4-4-4-4-4-4-4-|
I'm just a fool, a fool in love with you

G-|---------------------------------|
D-|---------------------------------|
A-|-4-4-4-4-4-4-4-4-----------------|
E-|-----------------4-4-4-4-4-4-4-4-|
I fell for you
And I knew
The vision of your love's loveliness
And I hope and I pray that someday
G-|---------------------------------|
D-|---------------------------------|
A-|-----------------6-4-3---6-4-3---|
E-|-6-6-6-6-6-6-6-6-------6-------6-|
I'll be the vision of your happy happiness 

G-|-----------------------------------|
D-|-----------------------------------|
A-|-----------------4-4-4-4-6-4-3-----|
E-|-4-4-4-4-1-1-1-1---------------6-4-|
Earth Angel, Earth Angel, will you be mine
G-|-------------------------------3-|
D-|---------------------------3-5---|
A-|-----------------4-4-4-4-6-------|
E-|-4-4-4-4-1-1-1-1-----------------|
My darling, dear, well I love you all the time
G-|-----------------------------------------------------|
D-|-----------------------------------------------------|
A-|-----------------4-6---------4-4-4-4-----------------|
E-|-4-4-4-4-1-1-1-1-----4-4-4-4---------4-4-4-4-4-4-4-4-|
I'm just a fool, a fool in love with you

Comments about this tab

Daniel A - 2004-12-05

good stuff


ibanezplaya007 - 2005-01-27

great song


guitarhockeyman - 2005-02-03

Does anyone know the brige at the begining of the song?


Kutless Fan - 2005-02-18

Here's the intro:

E-2-2-2-2h3p2-2-2-2-2h3p2-2-2-2-2p3h2-2-2-2-2p3h2-0-----0--0-------0
B-3-3-3-3-----3-3-3-3-----3-3-3-3-----3-3-3-3-----0---0----2-----2-2
G-------------------------------------------------0-0------0---0---0
D------------------------------------------------------------0------

E---3-2--3------3-2--3---
B----------3-----------3-
G-2-----------2----------

God bless.


guitarplayer92 - 2005-04-02

can anyone tell me how to play asus please


mmmthasgood1 - 2006-04-04

e------
B----3-
G----2-
D----2-
A------
E------


Add a comment/correction

Complimentary Christian Ringtones
Dadamobile and CGR have teamed up to bring your favorite Christian artists right to your phone. Sign up today and get 10 complementary ringtones!
Tab Country
Did you know CGR has a sister site w/ country guitar tabs? Well we do! Its called Tab Country. It has a great archive with a lot of country tabs.
Rockin Tabs
Are you looking for a site that has rock guitar tabs? Then Rockintabs.com is the place for you. It is a budding site with many rock guitar tabs. Submit your tab today.
Tab Gallery
Tab Gallery has a compilation of christian, rock, and country tabs all in one place. Come visit us.