Bass Tabs
(THIRD DAY) OR BY ARTIST NAME (JENNIFER KNAPP)
0-9|A|B|C|D|E|F|G|H|I|J|K|L|M|N|O|P|Q|R|S|T|U|V|W|X|Y|Z

Join Us Today!

Don't strum alone...
be a part of the largest online Christian music community. Browse thousands of guitar tabs and chat w/ musicians like yourself.


It's Free!

This tab has been rated a 4.62 out of 5 for accuracy. (13 votes)Sorry, but you must be logged in to rate this tab.
Click here to log-in, or you can click here to register.
(Registration is free)

All songs owned by Integrity and Brentwood-Benson are used by permission. If you make copies of any song on this website, be sure to report your usage to CCLI.
Submitted by: bhanley

Title: Who Am I
Artist: Casting Crowns
Album: Casting Crowns
Tabber: Ben Hanley (b.hanley1@lancaster.ac.uk)

Comments: Gotta love this song, I mean, really. It's amazing. Anyways, hope 
this is set out easy enough for you to understand and if anything isn't 
clear enough, then by all means do email me, and I'll try sort it out. 
There's plenty of places with space to do a bit of fast-fingered improvising 
if you're playing this live, to make it sound even better, but it shouldn't 
lose the power of the song, and become a showcase for finger skills. 
You can prolly make out the conventions I've used here, and if not, 
then my email address is at the top of this file. Enjoy.
_____________________________________________________________________________________________________________________________

Intro (0:09)		\"Who am I...\" (0:33)	\"Not because...\" (0:47)
G|-------------------|	G|------------------|	G|--------------------|
D|-3/9*---------6----|	D|-3/9*-8-6---------|	D|------6-8--6-8------|
A|------7*-67-9---9*-|	A|----------9-7*/19-|	A|-6-7-9----------7-9-|
E|-------------------|	E|------------------|	E|--------------------|

\"I am...\" (1:01) [Chorus]			\"I am yours...\" (1:29)
G|-------------------------------------------|	G|--------------------------|
D|-9*-8*-6*-------------9*-8*-6*-------------|	D|-9*---6*----9*--------6---|
A|----------9*-7*-9*-7*----------9*-7*-9*-7*-|	A|---7*---9*-----7*-7-9---9-|
E|-

------------------------------------------|	E|--------------------------|

\"Who am I...\" (1:44)		 \"Not because...\" (2:13)
G|----------------------------|	 G|------------------|
D|-9*-8-6---------9*-8-6------|	 D|----6-8--6-8------|
A|--------9-7*/19--------9-7*-|	 A|-7-9----------7-9-|
E|----------------------------|	 E|------------------|

\"I am...\" (2:27) [Chorus]
G|-------------------------------------------|
D|-9*-8*-6*-------------9*-8*-6*-------------|
A|----------9*-7*-9*-7*----------9*-7*-9*-7*-|
E|-------------------------------------------|

\"I am yoooooooouuuuurs...\" (2:56)

G|-----------------------------------------------------------------------|
D|-------6---66-8--9-8-6-------6---66-8-9-8-6----------6---66-8-9*-6*----|
A|---6-9---9-------------9-6-9---9------------9-77-6-9---9------------9*-|
E|-----------------------------------------------------------------------|

\"Not because...\" (3:23)	 \"I am...\" (3:32) [Chorus]
G|-----------|		 G|-------------------------------------------|
D|-6-8-------|		 D|-9*-8*-6*-------------9*-8*-6*-------------|
A|-----7-9---|		 A|----------9*-7*-9*-7*----------9*-7*-9*-7*-|
E|-----------|		 E|-------------------------------------------|

(4:16)						(4:38)
G|-----------------------------------------|	G|--------9*-|	   
D|-9*--------6----9*----6*-----9*----6*----|	D|------6----|	    
A|----7*-7-9---9-----7*----9*-----7*----9*-|	A|-7*-9------|	    
E|-----------------------------------------|	E|-----------| x 6  

G|----|
D|----|
A|-7*-|
E|----|
___________________________

KEY

* = hold a note

If two notes are together, you need to play these quite quickly.
You'll no doubt hear them in the song. Hope this makes sense to 
more people than just me.

Comments about this tab

No comments/corrections found. Add your own

Complimentary Christian Ringtones
Dadamobile and CGR have teamed up to bring your favorite Christian artists right to your phone. Sign up today and get 10 complementary ringtones!
Tab Country
Did you know CGR has a sister site w/ country guitar tabs? Well we do! Its called Tab Country. It has a great archive with a lot of country tabs.
Rockin Tabs
Are you looking for a site that has rock guitar tabs? Then Rockintabs.com is the place for you. It is a budding site with many rock guitar tabs. Submit your tab today.
Tab Gallery
Tab Gallery has a compilation of christian, rock, and country tabs all in one place. Come visit us.