Bass Tabs
(THIRD DAY) OR BY ARTIST NAME (JENNIFER KNAPP)
0-9|A|B|C|D|E|F|G|H|I|J|K|L|M|N|O|P|Q|R|S|T|U|V|W|X|Y|Z

Join Us Today!

Don't strum alone...
be a part of the largest online Christian music community. Browse thousands of guitar tabs and chat w/ musicians like yourself.


It's Free!

This tab has not yet been rated for accuracy.Sorry, but you must be logged in to rate this tab.
Click here to log-in, or you can click here to register.
(Registration is free)

All songs owned by Integrity and Brentwood-Benson are used by permission. If you make copies of any song on this website, be sure to report your usage to CCLI.
Submitted by: RighteousDuncan

Title: The Rock That Doesn't Roll
Artist: Larry Norman
Album: In another Land

Instrument: 4 String Bass

Tabbed by: RighteousDuncan 

Tuning: Standard (E A D G)

Groovy little song, I think this is at least 85% correct
listen for Timing:

Intro

G|------||
D|------||
A|------||
E|--0---||

Verse

G|-------------------------------------------------------------------||
D|-------------------------------------------------------------------||
A|-------------------------------------------------------------------||
E|--0--4-7-7-9-7---0--4-7-7-9-7--0--4-7-7-9-7--0-0-3-3-5-5-7-7-------||

G|-------------------------------------------------------------------||
D|-------------------------------------------------------------------||
A|--0--4-7-7-9-7--0-4-7-7-9-7----------------------------------------||
E|----------------------------0--4-7-7-9-7---0--4--7-7-9-7-----------||

G|-------------------------------------------------------------------||
D|-------------------------------------------------------------------||
A|-2-6-9-9-11-9--2-6-9-9-11-9---0--4-7-7-9-7---0-0-4-4-7-7-9-9-------||
E|-------------------------------------------------------------------||

G|-------------------------------------------------||
D|--------------------------2-2-2-2-2-2-2-2--------||
A|------------2-2-2-2-2-2--------------------------||
E|-4-7-9-11----------------------------------------||

Chorus

G|-------------------------------------------------------------------||
D|-------------------------------------------------------------------||
A|--0--4-7-7-9-7--0-4-7-7-9-7----------------------------------------||
E|----------------------------0--4-7-7-9-7---0--4--7-7-9-7-----------||

G|----------------------------------------------||
D|----------------------------------------------||
A|--2-6-9-9-11-9--0-4-7-7-9-7--0-4-7-9----------||
E|----------------------------------------------||

Verse

G|-------------------------------------------------------------------||
D|-------------------------------------------------------------------||
A|-------------------------------------------------------------------||
E|--0--4-7-7-9-7---0--4-7-7-9-7--0--4-7-7-9-7--0-0-3-3-5-5-7-7-------||

G|-------------------------------------------------------------------||
D|-------------------------------------------------------------------||
A|--0--4-7-7-9-7--0-4-7-7-9-7----------------------------------------||
E|----------------------------0--4-7-7-9-7---0--4--7-7-9-7-----------||

G|-------------------------------------------------------------------||
D|-------------------------------------------------------------------||
A|-2-6-9-9-11-9--2-6-9-9-11-9---0--4-7-7-9-7---0-0-4-4-7-7-9-9-------||
E|-------------------------------------------------------------------||

G|-------------------------------------------------||
D|--------------------------2-2-2-2-2-2-2-2--------||
A|------------2-2-2-2-2-2--------------------------||
E|-4-7-9-11----------------------------------------||

Chorus

G|-------------------------------------------------------------------||
D|-------------------------------------------------------------------||
A|--0--4-7-7-9-7--0-4-7-7-9-7----------------------------------------||
E|----------------------------0--4-7-7-9-7---0--4--7-7-9-7-----------||

G|----------------------------------------------||
D|----------------------------------------------||
A|--2-6-9-9-11-9--0-4-7-7-9-7--0-4-7-9----------||
E|----------------------------------------------||

Verse

G|-------------------------------------------------------------------||
D|-------------------------------------------------------------------||
A|-------------------------------------------------------------------||
E|--0--4-7-7-9-7---0--4-7-7-9-7--0--4-7-7-9-7--0-0-3-3-5-5-7-7-------||

G|-------------------------------------------------------------------||
D|-------------------------------------------------------------------||
A|--0--4-7-7-9-7--0-4-7-7-9-7----------------------------------------||
E|----------------------------0--4-7-7-9-7---0--4--7-7-9-7-----------||

G|-------------------------------------------------------------------||
D|-------------------------------------------------------------------||
A|-2-6-9-9-11-9--2-6-9-9-11-9---0--4-7-7-9-7---0-0-4-4-7-7-9-9-------||
E|-------------------------------------------------------------------||

G|-------------------------------------------------||
D|--------------------------2-2-2-2-2-2-2-2--------||
A|------------2-2-2-2-2-2--------------------------||
E|-4-7-9-11----------------------------------------||

Chorus

G|-------------------------------------------------------------------||
D|-------------------------------------------------------------------||
A|--0--4-7-7-9-7--0-4-7-7-9-7----------------------------------------||
E|----------------------------0--4-7-7-9-7---0--4--7-7-9-7-----------||

G|----------------------------------------------||
D|----------------------------------------------||
A|--2-6-9-9-11-9--0-4-7-7-9-7--0-4-7-9----------||
E|----------------------------------------------||

Bridge

G|-----------------------------------------------------||
D|-----------------------------------------------------||
A|-0---0---0--0-0---0---------0--0--0-0---0------------||
E|----------------3---1-2-3-------------3---1-2-3------||

G|-----------------------------------------------------||
D|-----------------------------------------------------||
A|-----0---0--0-0---0---------0--0--0-0---0-------0-0-3||
E|----------------3---1-2-3-------------3---1-2-3------||

Chorus

G|-------------------------------------------------------------------||
D|-------------------------------------------------------------------||
A|--0--4-7-7-9-7--0-4-7-7-9-7----------------------------------------||
E|----------------------------0--4-7-7-9-7---0--4--7-7-9-7-----------||

G|----------------------------------------------||
D|----------------------------------------------||
A|--2-6-9-9-11-9--0-4-7-7-9-7--0-4-7-9----------||
E|----------------------------------------------||

Thanks
RighteousDuncan

Comments about this tab

No comments/corrections found. Add your own

Complimentary Christian Ringtones
Dadamobile and CGR have teamed up to bring your favorite Christian artists right to your phone. Sign up today and get 10 complementary ringtones!
Tab Country
Did you know CGR has a sister site w/ country guitar tabs? Well we do! Its called Tab Country. It has a great archive with a lot of country tabs.
Rockin Tabs
Are you looking for a site that has rock guitar tabs? Then Rockintabs.com is the place for you. It is a budding site with many rock guitar tabs. Submit your tab today.
Tab Gallery
Tab Gallery has a compilation of christian, rock, and country tabs all in one place. Come visit us.