Bass Tabs
(THIRD DAY) OR BY ARTIST NAME (JENNIFER KNAPP)
0-9|A|B|C|D|E|F|G|H|I|J|K|L|M|N|O|P|Q|R|S|T|U|V|W|X|Y|Z

Join Us Today!

Don't strum alone...
be a part of the largest online Christian music community. Browse thousands of guitar tabs and chat w/ musicians like yourself.


It's Free!

This tab has been rated a 0.00 out of 5 for accuracy. (1 vote)Sorry, but you must be logged in to rate this tab.
Click here to log-in, or you can click here to register.
(Registration is free)

All songs owned by Integrity and Brentwood-Benson are used by permission. If you make copies of any song on this website, be sure to report your usage to CCLI.
Submitted by: picard400

#----------------------------------PLEASE NOTE---------------------------------#
#This file is the author's own work and represents their interpretation of the #
#song. You may only use this file for private study, scholarship, or research. #
#------------------------------------------------------------------------------##

Tabbed this as the live (and best) version.


                       THE HAPPY SONG (Bassline) (Live)
                            As recorded by Delirious?
                         (From the 2003 Album ACCESS:D)

Transcribed by Guy Grainger guygrainger@hotmail.com 

God Bless Delirious? for great accessible worship!

Bass (E A D G) 

INTRO / OUTRO
   
    E E E E E E E E   E E E E E E E E   E E E E E E E E   E E E E E E E E
||------------------|-----------------|-----------------|------------------||--|
||o-----------------|-----------------|-----------------|-----------------o||--|
||o-----------------|-----------------|-----------------|-----------------o||--|
||--3-3-3-3-3-3-3-3-|-7-7-7-7-7-7-7-7-|-0-0-0-0-0-0-0-0-|-8-8-8-8-8-8-8-8--||--|


CHORUS
 
  E E E E E E E E   E E E E E E E E   E E E E E E E E   E E E E E E E E
|-----------------|-----------------|-----------------|-----------------|-|
|-----------------|-----------------|-----------------|-----------------|-|
|-----------------|-----------------|-----------------|-----------------|-|
|-3-3-3-3-3-3-3-3-|-7-7-7-7-7-7-7-7-|-0-0-0-0-0-0-0-0-|-8-8-8-8-8-8-8-8-|-|
 

  E E E E E E E E   E E E E E E E E   E E E E E E E E   E E E E E E E E
|-----------------|-----------------|-----------------|-----------------|-|
|-----------------|-----------------|-----------------|-----------------|-|
|-----------------|-----------------|-----------------|-----------------|-|
|-3-3-3-3-3-3-3-3-|-7-7-7-7-7-7-7-7-|-0-0-0-0-0-0-0-0-|-8-8-8-8-8-8-8-8-|-|

VERSE

  H    Q  Q    H    Q  Q    H    Q  Q    H    Q  Q
|------------|------------|------------|------------|--|
|------------|------------|------------|------------|--|
|------------|------------|------------|-3----3--3--|--|
|-3----3--3--|-2----2--2--|-0----0--0--|------------|--|


  H    Q  Q    H    Q  Q    H    Q  Q    H    Q  Q
|------------|------------|------------|------------|--|
|------------|------------|------------|------------|--|
|------------|------------|------------|-3----3--3--|--|
|-3----3--3--|-2----2--2--|-0----0--0--|------------|--|

BRIDGE

  Wx2                  E E E E E E E E   E E E E E E E E
|--------------------|-----------------|-----------------|--|
|--------------------|-----------------|-----------------|--|
|--------------------|-----------------|-----------------|--|
|--------------------|-3-3-2-2-3-3-2-2-|-3-3-2-2-3-3-2-2-|--|

  Wx2                  E E E E E E E E   E E E E E E E E
|--------------------|-----------------|-----------------|--|
|--------------------|-----------------|-----------------|--|
|--------------------|-----------------|-----------------|--|
|--------------------|-3-3-2-2-3-3-2-2-|-3-3-2-2-3-3-2-2-|--|

  W         W          W         E E E E E E E E
|----------|----------|--------|-----------------*|-|
|----------|----------|--------|-----------------*|-|
|-0--------|-3--------|--------|-3-3-3-3-3-3-3-3-*|-|
|----------|----------|-0------|-----------------*|-|



Duration Legend
---------------
W - whole; H - half; Q - quarter; E - 8th; S - 16th; T - 32nd; X - 64th; a - acciaccatura
+ - note tied to previous; . - note dotted; .. - note double dotted
Uncapitalized letters represent notes that are staccato (1/2 duration)
Irregular groupings are notated above the duration line
Duration letters will always appear directly above the note/fret number it represents the
duration for.  Duration letters with no fret number below them represent rests.  Multi-
bar rests are notated in the form Wxn, where n is the number of bars to rest for.  Low
melody durations appear below the staff

Tablature Legend
----------------
 h   - hammer-on
 p   - pull-off
 b   - bend
 pb  - pre-bend
 r   - bend release (if no number after the r, then release immediately)
 /\  - slide into or out of (from/to "nowhere")
 s   - legato slide
 S   - shift slide
  - natural harmonic
[n]  - artificial harmonic
n(n) - tapped harmonic
 ~   - vibrato
 tr  - trill
 T   - tap
 TP  - trem. picking
 PM  - palm muting
\n/  - tremolo bar dip; n = amount to dip
 \n  - tremolo bar down
 n/  - tremolo bar up
/n\  - tremolo bar inverted dip
 =   - hold bend; also acts as connecting device for hammers/pulls
 <>  - volume swell (louder/softer)
 x   - on rhythm slash represents muted slash
 o   - on rhythm slash represents single note slash

Misc Legend
-----------
 |  - bar
||  - double bar
||o - repeat start
o|| - repeat end
*|  - double bar (ending)
 :  - bar (freetime)
 $  - Segno
 &  - Coda
Tempo markers -  = BPM(8/16=s8/s16), where s8 = swing 8ths, s16 = swing 16ths


***************************************************************************************
* Generated using Power Tab Editor by Brad Larsen - http://powertab.guitarnetwork.org *
***************************************************************************************

Comments about this tab

No comments/corrections found. Add your own

Complimentary Christian Ringtones
Dadamobile and CGR have teamed up to bring your favorite Christian artists right to your phone. Sign up today and get 10 complementary ringtones!
Tab Country
Did you know CGR has a sister site w/ country guitar tabs? Well we do! Its called Tab Country. It has a great archive with a lot of country tabs.
Rockin Tabs
Are you looking for a site that has rock guitar tabs? Then Rockintabs.com is the place for you. It is a budding site with many rock guitar tabs. Submit your tab today.
Tab Gallery
Tab Gallery has a compilation of christian, rock, and country tabs all in one place. Come visit us.