Bass Tabs
(THIRD DAY) OR BY ARTIST NAME (JENNIFER KNAPP)
0-9|A|B|C|D|E|F|G|H|I|J|K|L|M|N|O|P|Q|R|S|T|U|V|W|X|Y|Z

Join Us Today!

Don't strum alone...
be a part of the largest online Christian music community. Browse thousands of guitar tabs and chat w/ musicians like yourself.


It's Free!

This tab has not yet been rated for accuracy.Sorry, but you must be logged in to rate this tab.
Click here to log-in, or you can click here to register.
(Registration is free)

All songs owned by Integrity and Brentwood-Benson are used by permission. If you make copies of any song on this website, be sure to report your usage to CCLI.
Submitted by: mikg

Thankful - Caedmon's Call - Bass                                       
Album - 40 Acres

Drums start (16 beats)

[intro] (4 measures of rest for bass)

     1 . 2 . 3 . 4 . 1 . 2 . 3 . 4 . 1 . 2 . 3 . 4 . 1 . 2 . 3 . 4 . 
    |---------------|0-2---2--------|---------------|4-2---2--------|
    |--------0-2---2|--------0-2---2|--------0-2---2|--------0-2-0--|
    |0-----0--------|---------------|0-----0--------|---------------|
    |---------------|---------------|---------------|---------------|

     1 . 2 . 3 . 4 . 1 . 2 . 3 . 4 . 1 . 2 . 3 . 4 . 1 . 2 . 3 . 4 . 
    |---------------|0-2---2--------|---------------|5-5-4-4-2-0----|
    |--------0-2---2|--------0-2---2|--------0-2---2|------------2-0|
    |0-----0--------|---------------|0-----0--------|---------------|
    |---------------|---------------|---------------|---------------|

[V1]
     1 . 2 . 3 . 4 . 1 . 2 . 3 . 4 . 1 . 2 . 3 . 4 . 1 . 2 . 3 . 4 . 
    |---------------|---------------|---------------|---------------|
    |---------------|---------------|---------------|---------------|
    |0-----0-0------|0-----0-0------|0-----0-0------|0-----0-0---0-4|
    |---------------|---------------|---------------|---------------| 

     1 . 2 . 3 . 4 . 1 . 2 . 3 . 4 . 1 . 2 . 3 . 4 . 1 . 2 . 3 . 4 . 
    |---------------|---------------|---------------|0-2---2--------|
    |0-----0-0------|0-----0-0------|--------0-2---2|--------0-2---2|
    |---------------|---------------|0-----0--------|---------------|
    |---------------|--------------3|---------------|---------------|

     1 . 2 . 3 . 4 . 1 . 2 . 3 . 4 . 1 . 2 . 3 . 4 . 1 . 2 . 3 . 4 . 
    |---------------|---------------|---------------|--------5-5----|
    |---------------|---------------|---------------|------------4-2|
    |0-----0-0------|0-----0-0------|0-----0-0------|0-----0--------|
    |---------------|---------------|---------------|---------------| '

     1 . 2 . 3 . 4 . 1 . 2 . 3 . 4 . 1 . 2 . 3 . 4 . 1 . 2 . 3 . 4 . 
    |---------------|---------------|---------------|0-2---2--------|
    |0-----0-0------|0-----0-0-2-0--|--------0-2---2|--------0-2---2|
    |----------0-2-4|--------------2|0-----0--------|---------------|
    |---------------|---------------|---------------|---------------|

[V2]  
     1 . 2 . 3 . 4 . 1 . 2 . 3 . 4 . 1 . 2 . 3 . 4 . 1 . 2 . 3 . 4 . 
    |---------------|---------------|---------------|---------------|
    |---------------|---------------|---------------|---------------|
    |0-----0-0------|0-----0-0------|0-----0-0------|0-----0-0---2-4|
    |---------------|--------------3|---------------|---------------|

     1 . 2 . 3 . 4 . 1 . 2 . 3 . 4 . 1 . 2 . 3 . 4 . 1 . 2 . 3 . 4 . 
    |---------------|---------------|---------------|0-2---2--------|
    |0-----0-0------|0-----0-2---2--|--------0-2---2|--------0-2---2|
    |------------0-2|---------------|0-----0--------|---------------|
    |----------3----|--------------3|---------------|---------------|

     1 . 2 . 3 . 4 . 1 . 2 . 3 . 4 . 1 . 2 . 3 . 4 . 1 . 2 . 3 . 4 . 
    |---------------|---------------|---------------|--------5-5----|
    |---------------|---------------|---------------|------------4-2|
    |0-----0-0------|0-----0-0------|0-----0-0------|0-----0--------|
    |---------------|---------------|---------------|---------------| '

     1 . 2 . 3 . 4 . 1 . 2 . 3 . 4 . 1 . 2 . 3 . 4 . 1 . 2 . 3 . 4 . 
    |---------------|---------------|---------------|0-2---2--------|
    |0-----0-0------|0-----0-0-2-0--|--------0-2---2|--------0-2---2|
    |----------0-2-4|--------------2|0-----0--------|---------------|
    |---------------|---------------|---------------|---------------|

[Bridge 1] (keyboards come in here)

     1 . 2 . 3 . 4 . 1 . 2 . 3 . 4 . 1 . 2 . 3 . 4 . 1 . 2 . 3 . 4 . 
    |0-----0--------|---------------|--------------2|---------------|
    |--------0-----0|---------------|--------0------|---------------|
    |---------------|----0---0------|---------------|----0---0------|
    |---------------|--------------2|3--------------|---------------|

     1 . 2 . 3 . 4 . 1 . 2 . 3 . 4 . 1 . 2 . 3 . 4 . 1 . 2 . 3 . 4 . 
    |0-----0--------|---------------|---------------|---------------|
    |--------0-----0|---------------|---------------|---------------|
    |---------------|----0---0------|---------------|---------------|
    |---------------|--------------2|3-------3-3----|3-------3-3----|

     1 . 2 . 3 . 4 . 1 . 2 . 3 . 4 . 
    |--------4-7-7-4|7-9-7----------|
    |0-----7--------|---------------|
    |---------------|---------------|
    |---------------|---------------|

[Chorus] (electric 12 comes in)

     1 . 2 . 3 . 4 . 1 . 2 . 3 . 4 . 1 . 2 . 3 . 4 . 1 . 2 . 3 . 4 . 
    |---------------|---------------|---------------|---------------|
    |---------------|---------------|---------------|---------------|
    |0-----0-----0--|--0---0-----0--|0-----0-----2--|--2---2-----0--|
    |--------0-2----|--------0-2---2|--------0-2----|--------0-2---2|


     1 . 2 . 3 . 4 . 1 . 2 . 3 . 4 . 1 . 2 . 3 . 4 . 1 . 2 . 3 . 4 . 
    |0---0-0-0-0----|---------------|---------------|0-2---2--------|
    |------------4-2|0-----0-0-2-0--|--------0-2---2|--------0-2---2|
    |---------------|--------------2|0-----0--------|---------------|
    |---------------|---------------|---------------|---------------|       

     1 . 2 . 3 . 4 . 1 . 2 . 3 . 4 . 
    |---------------|5-5-4-4-2-0----|
    |--------0-2---2|------------2-0|
    |0-----0--------|---------------|
    |---------------|---------------|

[V3]
     1 . 2 . 3 . 4 . 1 . 2 . 3 . 4 . 1 . 2 . 3 . 4 . 1 . 2 . 3 . 4 . 
    |---------------|---------------|---------------|---------------|
    |---------------|---------------|---------------|---------------|
    |0-----0-0------|0-----0-0------|0-----0-0------|0-----0-0---0-4|
    |---------------|---------------|---------------|---------------| 

     1 . 2 . 3 . 4 . 1 . 2 . 3 . 4 . 1 . 2 . 3 . 4 . 1 . 2 . 3 . 4 . 
    |---------------|---------------|---------------|0-2---2--------|
    |0-----0-0------|0-----0-0------|--------0-2---2|--------0-2---2|
    |---------------|---------------|0-----0--------|---------------|
    |---------------|--------------3|---------------|---------------|

     1 . 2 . 3 . 4 . 1 . 2 . 3 . 4 . 1 . 2 . 3 . 4 . 1 . 2 . 3 . 4 . 
    |---------------|---------------|---------------|--------5-5----|
    |---------------|---------------|---------------|------------4-2|
    |0-----0-0------|0-----0-0------|0-----0-0------|0-----0--------|
    |---------------|---------------|---------------|---------------|

     1 . 2 . 3 . 4 . 1 . 2 . 3 . 4 . 1 . 2 . 3 . 4 . 1 . 2 . 3 . 4 . 
    |---------------|---------------|---------------|0-2---2--------|
    |0-----0-0------|0-----0-0-2-0--|--------0-2---2|--------0-2---2|
    |----------0-2-4|--------------2|0-----0--------|---------------|
    |---------------|---------------|---------------|---------------|

[Bridge 2]

     1 . 2 . 3 . 4 . 1 . 2 . 3 . 4 . 1 . 2 . 3 . 4 . 1 . 2 . 3 . 4 . 
    |0-----0--------|---------------|--------------2|---------------|
    |--------0-----0|---------------|--------0------|---------------|
    |---------------|----0---0------|---------------|----0---0------|
    |---------------|--------------2|3--------------|---------------|

     1 . 2 . 3 . 4 . 1 . 2 . 3 . 4 . 1 . 2 . 3 . 4 . 1 . 2 . 3 . 4 . 
    |0-----0--------|---------------|---------------|---------------|
    |--------0-----0|---------------|---------------|---------------|
    |---------------|----0---0------|---------------|---------------|
    |---------------|--------------2|3-------3-3----|3-3-----3-3----|

     1 . 2 . 3 . 4 . 1 . 2 . 3 . 4 . 
    |--------4-7-7-4|7-9-7----------|
    |0-----7--------|---------------|
    |---------------|---------------|
    |---------------|---------------| 

[Repeat Chorus] - Double Chorus

     1 . 2 . 3 . 4 . 1 . 2 . 3 . 4 . 1 . 2 . 3 . 4 . 1 . 2 . 3 . 4 . 
    |---------------|---------------|---------------|---------------|
    |---------------|---------------|---------------|---------------|
    |0-----0-----0--|--0---0-----0--|0-----0-----2--|--2---2-----0--|
    |--------0-2----|--------0-2---2|--------0-2----|--------0-2---2|

     1 . 2 . 3 . 4 . 1 . 2 . 3 . 4 . 1 . 2 . 3 . 4 . 1 . 2 . 3 . 4 .
    |0---0-0-0-0----|---------------|---------------|---------------|
    |------------4-2|0-----0-0-2-0--|---------------|---------------|
    |---------------|--------------2|0-----0-----0--|--0---0-----0--|
    |---------------|---------------|--------0-2----|--------0-2---2|      

     1 . 2 . 3 . 4 . 1 . 2 . 3 . 4 . 1 . 2 . 3 . 4 . 1 . 2 . 3 . 4 . 
    |---------------|---------------|---------------|---------------|
    |---------------|---------------|---------------|---------------|
    |0-----0-----0--|--0---0-----0--|0-----0-----2--|--2---2-----0--|
    |--------0-2----|--------0-2---2|--------0-2----|--------0-2---2|

     1 . 2 . 3 . 4 . 1 . 2 . 3 . 4 . 1 . 2 . 3 . 4 . 1 . 2 . 3 . 4 . 
    |0---0-0-0-0----|---------------|---------------|0-2---2--------|
    |------------4-2|0-----0-0-2-0--|--------0-2---2|--------0-2---2|
    |---------------|--------------2|0-----0--------|---------------|
    |---------------|---------------|---------------|---------------| 

[Harmonica Solo] (8 measures - 32 beats)

     1 . 2 . 3 . 4 . 1 . 2 . 3 . 4 . 1 . 2 . 3 . 4 . 1 . 2 . 3 . 4 . 
    |0-----0--------|---------------|--------------0|2-2---------2--|
    |--------0-----0|---------------|--------0-0-4--|----2-0-------4|
    |---------------|----0---0------|----0-2--------|--------0------|
    |---------------|------------0-2|3-3------------|---------------|

     1 . 2 . 3 . 4 . 1 . 2 . 3 . 4 . 1  .  2  . 3 .  4  . 1 . 2  . 3 . 4 . 
    |0-0-4-6-7---4-0|2-4-2-0-2------|12-12-11-9----------|----------------|
    |---------------|---------------|----------12-12-11-9|--9-------------|
    |---------------|---------------|--------------------|12--12-7-0------|
    |---------------|---------------|--------------------|----------------|

[Bridge 3]

     1 . 2 . 3 . 4 . 1 . 2 . 3 . 4 . 1 . 2 . 3 . 4 . 1 . 2 . 3 . 4 . 
    |0-----0--------|---------------|--------------2|---------------|
    |--------0-----0|---------------|--------0------|---------------|
    |---------------|----0---0------|---------------|----0---0------|
    |---------------|--------------2|3--------------|---------------|

     1 . 2 . 3 . 4 . 1 . 2 . 3 . 4 . 1 . 2 . 3 . 4 . 1 . 2 . 3 . 4 . 
    |0-----0--------|---------------|---------------|---------------|
    |--------0-----0|---------------|---------------|---------------|
    |---------------|----0---0------|---------------|---------------|
    |---------------|--------------2|3-------3-3----|3-3-----3-3----|

     1 . 2 . 3 . 4 . 1 . 2 . 3 . 4 . 
    |----2-0-2-2-4-0|7-9-7----------|
    |0-0------------|---------------|
    |---------------|---------------|0___
    |---------------|--------------\| 

[Repeat Chorus, no guitar,bass - drums only]

      1 . 2 . 3 . 4 . 1 . 2 . 3 . 4 . 1 . 2 . 3 . 4 . 1 . 2 . 3 . 4 . 
   G |---------------|---------------|12/14\~~~~~~~~~~~--------------|
   D |---------------|---------------|---------------|----14~-12~----|
   A |---------------|---------------|---------------|------------14~|
   E |---------------|---------------|---------------|---------------|

[Repeat Chorus]

     1 . 2 . 3 . 4 . 1 . 2 . 3 . 4 . 1 . 2 . 3 . 4 . 1 . 2 . 3 . 4 . 
    |---------------|---------------|---------------|---------------|
    |---------------|---------------|---------------|---------------|
    |0-----0-----0--|--0---0-----0--|0-----0-----2--|--2---2-----0--|
    |--------0-2----|--------0-2---2|--------0-2----|--------0-2---2|

     1 . 2 . 3 . 4 . 1 . 2 . 3 . 4 . 1 . 2 . 3 . 4 . 1 . 2 . 3 . 4 .
    |0---0-0-0-0----|---------------|---------------|---------------|
    |------------4-2|0-----0-0-2-0--|---------------|---------------|
    |---------------|--------------2|0-----0-----0--|--0---0-----0--|
    |---------------|---------------|--------0-2----|--------0-2---2|      

     1 . 2 . 3 . 4 . 1 . 2 . 3 . 4 . 1 . 2 . 3 . 4 . 1 . 2 . 3 . 4 . 
    |---------------|---------------|---------------|---------------|
    |---------------|---------------|---------------|---------------|
    |0-----0-----0--|--0---0-----0--|0-----0-----2--|--2---2-----0--|
    |--------0-2----|--------0-2---2|--------0-2----|--------0-2---2|

     1 . 2 . 3 . 4 . 1 . 2 . 3 . 4 . 
    |0---0-0-0-0----|---------------|
    |------------4-2|0-----0-0-2-0--|
    |---------------|--------------2|
    |---------------|---------------|

[Finish]

     1 . 2 . 3 . 4 . 1 . 2 . 3 . 4 . 1 . 2 . 3 . 4 . 1 . 2 . 3 . 4 . 
    |0-----0--------|---------------|--------------0|2-2---------2--|
    |--------0-----0|---------------|--------0-0-4--|----2-0-------4|
    |---------------|----0---0------|----0-2--------|--------0------|
    |---------------|------------0-2|3-3------------|---------------|

     1 . 2 . 3 . 4 . 1 . 2 . 3 . 4 . 1  .  2  . 3 .  4  . 1 . 2 . 3 . 4 . 
    |0-0-4-6-7---4-0|2-4-2-0-2------|12-12-11-9----------|---------------|
    |---------------|---------------|----------12-12-11-9|---------------|
    |---------------|---------------|--------------------|12-------------|
    |---------------|---------------|--------------------|---------------|

Comments about this tab

No comments/corrections found. Add your own

Complimentary Christian Ringtones
Dadamobile and CGR have teamed up to bring your favorite Christian artists right to your phone. Sign up today and get 10 complementary ringtones!
Tab Country
Did you know CGR has a sister site w/ country guitar tabs? Well we do! Its called Tab Country. It has a great archive with a lot of country tabs.
Rockin Tabs
Are you looking for a site that has rock guitar tabs? Then Rockintabs.com is the place for you. It is a budding site with many rock guitar tabs. Submit your tab today.
Tab Gallery
Tab Gallery has a compilation of christian, rock, and country tabs all in one place. Come visit us.