Bass Tabs
(THIRD DAY) OR BY ARTIST NAME (JENNIFER KNAPP)
0-9|A|B|C|D|E|F|G|H|I|J|K|L|M|N|O|P|Q|R|S|T|U|V|W|X|Y|Z

Join Us Today!

Don't strum alone...
be a part of the largest online Christian music community. Browse thousands of guitar tabs and chat w/ musicians like yourself.


It's Free!

Ghoti Hook - Cowboy

This tab has not yet been rated for accuracy.Sorry, but you must be logged in to rate this tab.
Click here to log-in, or you can click here to register.
(Registration is free)

All songs owned by Integrity and Brentwood-Benson are used by permission. If you make copies of any song on this website, be sure to report your usage to CCLI.
+------------------------------------------+
\  Artist     :  Ghoti Hook                 \
/  Song       :  Cowboy                     /
\  Instrument :  Bass                       \
/  Tabbed by  :  Mike!    /
\___________________________________________\

Intro:
G-|-----------------|
D-|-----------------| \  x4
A-|-----------2-3-5-| /
E-|-----------------|

G-|-------------------------------|
D-|-------------------------------| \  x4
A-|-------------------------2-3-5-| /
E-|-2-3-3-3-2-3-3-3-2-3-3-3-------|

G-|-------------------------------|
D-|-------------------------------|
A-|-------------------------2-3-5-|
E-|-2-3-3-3-2-3-3-3-2-3-3-3-------|
Riding on the range with his six gun at his side,
He’s heading into town with a sneer he can’t hide.
Doesn’t wanna fight, but a fight he will find.
Nothing up his sleeve, ‘cause he ain’t the cheating kind.

G-|------------------------|
D-|------------------------|
A-|------5-5-5-5-5-5-5-5-5-|
E-|-5~---------------------|
High in the saddle, he heads into battle.
One bullet is all that he brings.
He hushes the room when he walks in saloons,
And everyone sings...

G-|-----------------------------------------------------------------------|
D-|-----------------------2-3-5-3-5-3-2-----------------------------------|
A-|-----2-3-5-3-5-3-2-3-5-------------------2-3-5-3-5-3-2-5-5-5-5-5-3-2-0-|
E-|-3-5---------------------------------3-5-------------------------------|
cause he's a Cowboy!  Cowboy!  Cowboy! Cowboy!
Cowboy!  Cowboy!  Cowboy! Cowboy!

G-|-------------------------------|
D-|-------------------------------| \  x4
A-|-------------------------2-3-5-| /
E-|-2-3-3-3-2-3-3-3-2-3-3-3-------|

G-|-------------------------------|
D-|-------------------------------|
A-|-------------------------2-3-5-|
E-|-2-3-3-3-2-3-3-3-2-3-3-3-------|
Sleeping ‘neath the stars with a wary open eye.
A cactus for a pillow--he can hear the coyote’s cry.
He doesn’t need no woman--no partner at his side.
A loner and a rambler with that outlaw pride.

G-|------------------------|
D-|------------------------|
A-|------5-5-5-5-5-5-5-5-5-|
E-|-5~---------------------|
High in the saddle, he heads into battle.
One bullet is all that he brings.
He hushes the room when he walks in saloons,
And everyone sings...

G-|-----------------------------------------------------------------------|
D-|-----------------------2-3-5-3-5-3-2-----------------------------------|
A-|-----2-3-5-3-5-3-2-3-5-------------------2-3-5-3-5-3-2-5-5-5-5-5-3-2-0-|
E-|-3-5---------------------------------3-5-------------------------------|
cause he's a Cowboy!  Cowboy!  Cowboy! Cowboy!
Cowboy!  Cowboy!  Cowboy! Cowboy!

G-|-------------------------------------------------------------|
D-|-------------------------------------------------------------|
A-|-------------------------2-3-5-------------------------5-7-5-|
E-|-2-3-3-3-2-3-3-3-2-3-3-3-------2-3-3-3-2-3-3-3-2-3-3-3-------|

G-|-------------------------------------------------------------|
D-|-------------------------------------------------------------|
A-|-------------------------2-3-5-------------------------2-3-5-|
E-|-2-3-3-3-2-3-3-3-2-3-3-3-------2-3-3-3-2-3-3-3-2-3-3-3-------|

G-|------------------------|
D-|------------------------|
A-|------5-5-5-5-5-5-5-5-5-|
E-|-5~---------------------|
High in the saddle, he heads into battle.
One bullet is all that he brings.
He hushes the room when he walks in saloons,
And everyone sings...

G-|-----------------------------------------------------------------------|
D-|-----------------------2-3-5-3-5-3-2-----------------------------------|
A-|-----2-3-5-3-5-3-2-3-5-------------------2-3-5-3-5-3-2-5-5-5-5-5-3-2-0-|
E-|-3-5---------------------------------3-5-------------------------------|
cause he's a Cowboy!  Cowboy!  Cowboy! Cowboy!
Cowboy!  Cowboy!  Cowboy!
Cowboy!  Cowboy!  Cowboy!
cause he's a Cowboy!  Cowboy!  Cowboy!

G-|-------------------------------------------------------------|
D-|-------------------------------------------------------------|
A-|-------------------------2-3-5-------------------------5-7-5-|
E-|-2-3-3-3-2-3-3-3-2-3-3-3-------2-3-3-3-2-3-3-3-2-3-3-3-------|

G-|-------------------------------------------------------------|
D-|-------------------------------------------------------------|
A-|-------------------------2-3-5-------------------------2-3-5-|
E-|-2-3-3-3-2-3-3-3-2-3-3-3-------2-3-3-3-2-3-3-3-2-3-3-3-------|

G-|---------|
D-|---------|
A-|-2-3-5---|
E-|-------3-|

Comments about this tab

No comments/corrections found. Add your own

Complimentary Christian Ringtones
Dadamobile and CGR have teamed up to bring your favorite Christian artists right to your phone. Sign up today and get 10 complementary ringtones!
Tab Country
Did you know CGR has a sister site w/ country guitar tabs? Well we do! Its called Tab Country. It has a great archive with a lot of country tabs.
Rockin Tabs
Are you looking for a site that has rock guitar tabs? Then Rockintabs.com is the place for you. It is a budding site with many rock guitar tabs. Submit your tab today.
Tab Gallery
Tab Gallery has a compilation of christian, rock, and country tabs all in one place. Come visit us.