Bass Tabs
(THIRD DAY) OR BY ARTIST NAME (JENNIFER KNAPP)
0-9|A|B|C|D|E|F|G|H|I|J|K|L|M|N|O|P|Q|R|S|T|U|V|W|X|Y|Z

Join Us Today!

Don't strum alone...
be a part of the largest online Christian music community. Browse thousands of guitar tabs and chat w/ musicians like yourself.


It's Free!

This tab has been rated a 5.00 out of 5 for accuracy. (1 vote)Sorry, but you must be logged in to rate this tab.
Click here to log-in, or you can click here to register.
(Registration is free)

All songs owned by Integrity and Brentwood-Benson are used by permission. If you make copies of any song on this website, be sure to report your usage to CCLI.
Submitted by: plainbass

Artist: relient k(duh)
Song Title: Maybe it's Maybeline(duh)
Tabber: Des Freehauf

Intro- Comes in after guitar plays a little

G------------------------------
D------------------------------
A------------------------------
E---5--5--5-5-5--3-3-3-2-2-2---

Verse:this part is kinda fast, you gotta be guick when you switch from 
chorus to this 
   [=======]=======]=======]========][================][=========] [=]
G---------------------------------------------------------------------
D--------------------------------------5-5-5-5-5-5-5-5---------------- play 4x
A---5-5-5-5---------2-2-2-2--5-5-5-5---------------------5-5-5-5-5----
E-----------5-5-5-5-------------------------------------------------5-

                                                    [===----==]
G--------------------------------------------------------------
D----------------------------------------------------5-4-2-2-4- play 3x
A---2-2-2-2-4-4-4-4-5-5-5-5-5-5-5-5-7-7-5-5-5-5-5-5------------
E--------------------------------------------------------------

Chorus: play 2x

G-----------------------------------------------------------------
D-----------------------------------------------------------------
A---5-5-5-5-5-5-5-5-5-5-5-5---------------------------------------
E---------------------------5-5-5-5-5-5-5-5-5-5-5-5-3-3-3-3-3-3---
             
          

G------------------------------------
D------------------------------------
A---2-2-2-2-2-2-2-2-4-4-4-4-4-4-4-4--                              
E------------------------------------


Solo/Bridge: play 3x

G-------------------------------------------------------------
D-------------------------------------------------------------
A---5-5-5-5-5-5-5-5-5-5-5-5-thats-12x-------------------------
E-------------------------------------5-5-5-5-5-5-5-5-5-5-5-5-

E---3-3-3-3-3-3-3-3-3-3-3-3-3-3-3-3-3-3-3-3-3-3-3-3-thats-24x

End:

A---5-5-5-5-5-5-5-5-5-5-5-5-------------------------2-2-2-2-2-2-2-2-
E---------------------------5-5-5-5-5-5-5-5-5-5-5-5-----------------

A---2-2-2-2-2-2-2-2-4-4-4-4-4-4-4-4--5-hold-until-end-of-song-------



Airighty then, this is a really fun song to play when you get the hang of it.
And it took me a while to figure it out but when i did i was playing it all 
day long.You'll have to figure out the rythms n such but it's pretty easy 2 
do that, so all i have to say now is th@ i will be in my room trying to figure
out more RK songs 4 ya. peace out.

Comments about this tab

No comments/corrections found. Add your own

Complimentary Christian Ringtones
Dadamobile and CGR have teamed up to bring your favorite Christian artists right to your phone. Sign up today and get 10 complementary ringtones!
Tab Country
Did you know CGR has a sister site w/ country guitar tabs? Well we do! Its called Tab Country. It has a great archive with a lot of country tabs.
Rockin Tabs
Are you looking for a site that has rock guitar tabs? Then Rockintabs.com is the place for you. It is a budding site with many rock guitar tabs. Submit your tab today.
Tab Gallery
Tab Gallery has a compilation of christian, rock, and country tabs all in one place. Come visit us.