Bass Tabs
(THIRD DAY) OR BY ARTIST NAME (JENNIFER KNAPP)
0-9|A|B|C|D|E|F|G|H|I|J|K|L|M|N|O|P|Q|R|S|T|U|V|W|X|Y|Z

Join Us Today!

Don't strum alone...
be a part of the largest online Christian music community. Browse thousands of guitar tabs and chat w/ musicians like yourself.


It's Free!

This tab has not yet been rated for accuracy.Sorry, but you must be logged in to rate this tab.
Click here to log-in, or you can click here to register.
(Registration is free)

All songs owned by Integrity and Brentwood-Benson are used by permission. If you make copies of any song on this website, be sure to report your usage to CCLI.
Submitted by: jmh2twenty3

Song:"Most Likely to Succeed"
Album:Our Newest Album Ever
Lyrics:Reese Roper and Scott Kerr
Music:Scott Kerr
Corpyright 1997 5Minute Walk Music

Tabbed out by: John 'Soul Brother'
E-mail: jmh2twenty3@yahoo.com

This is a somewhat difficult song, but, not if you practice it enough.
Whenever you see '\' it means to slide 'up' to the note.
If you see '/' it means slide down.
If you see 'x' next to a note, that means play it multiple times.

Finally...
Here is the tab...

Intro and Verse:
G-------------------------------------------
D-------------------------------------------
A--8----------10-------------4-------3------
E-9-9-99\10-11--11-11-11/10-5-5-585-4-4-44\8

Pre-Chorus:
G-------------------------------------
D-------------------------------------
A---4x--4x-6x--6x-----------------3333
E-2x--2x-----4x--4x-2222-6666-4444----

Chorus:
G-----------
D-----------
A-4x------4x
E---6x-4x---

Bridge:
G--------------------------------------------------
D----------------------------3-6----3-6--3-6----3-6
A---3-6----3-6--3-6----3-6-44---4-44---44---4-44---
E-44---4-44---44---4-44----------------------------

G-------------------------------------------------
D-------------------------------------------------
A---3-6----3-6--3-6----3-6--5-8----5-8--5-8----5-8
E-44---4-44---44---4-44---66---6-66---66---6-66---

G-------------------------------------------------
D-------------------------------------------------
A---1-4----1-4--1-4----1-4--3-6----3-6--3-6----3-6
E-22---2-22---22---2-22---44---4-44---44---4-44---

E-mail me if this helped you out or whatever.
Rock on
John

Comments about this tab

No comments/corrections found. Add your own

Complimentary Christian Ringtones
Dadamobile and CGR have teamed up to bring your favorite Christian artists right to your phone. Sign up today and get 10 complementary ringtones!
Tab Country
Did you know CGR has a sister site w/ country guitar tabs? Well we do! Its called Tab Country. It has a great archive with a lot of country tabs.
Rockin Tabs
Are you looking for a site that has rock guitar tabs? Then Rockintabs.com is the place for you. It is a budding site with many rock guitar tabs. Submit your tab today.
Tab Gallery
Tab Gallery has a compilation of christian, rock, and country tabs all in one place. Come visit us.