Bass Tabs
(THIRD DAY) OR BY ARTIST NAME (JENNIFER KNAPP)
0-9|A|B|C|D|E|F|G|H|I|J|K|L|M|N|O|P|Q|R|S|T|U|V|W|X|Y|Z

Join Us Today!

Don't strum alone...
be a part of the largest online Christian music community. Browse thousands of guitar tabs and chat w/ musicians like yourself.


It's Free!

Ghoti Hook - Body Juggler

This tab has not yet been rated for accuracy.Sorry, but you must be logged in to rate this tab.
Click here to log-in, or you can click here to register.
(Registration is free)

All songs owned by Integrity and Brentwood-Benson are used by permission. If you make copies of any song on this website, be sure to report your usage to CCLI.
+------------------------------------------+
\  Artist     :  Ghoti Hook                 \
/  Song       :  Body Juggler               /
\  Instrument :  Bass                       \
/  Tabbed by  :  Mike!    /
\___________________________________________\

Intro :

G-|---|
D-|---| \  Repeat
A-|-3-| /
E-|---|

G-|---------------------------------------------------------------------------|
D-|---------------------------------------------------------------------------|
A-|-3-3-3-3-3---------3-3-3-3-3---------3-3-3-3-3-----------------------------|
E-|-----------3-3-3-3-----------3-3-3-3-----------3-3-3-3-1-1-1-1-1-1-1-1-1-3-|

G-|---------------------------------------------------------------------------|
D-|---------------------------------------------------------------------------|
A-|-3-3-3-3-3---------3-3-3-3-3---------3-3-3-3-3-----------------------------|
E-|-----------3-3-3-3-----------3-3-3-3-----------3-3-3-3-1-1-1-1-1-1-1-1-1-3-|


G-|-----------------------------------------------------------------------|
D-|-----------------------------------------------------------------------|
A-|-3-3-3-3-3---------3-3-3-3-3---------3-3-3-3---------------------------|
E-|-----------3-3-3-3-----------1-1-1-1---------3-3-3-3-1-1-1-1-1-1-1-1-3-|
she can only see past certain views
she doesnt think that she will lose
and with this we just can not get along
I must admit I like her a lot
this infatuation just wont stop
and in the end I know I must be wrong

G-|-------------------------------------------------------------------------|
D-|-------------------------------------------------------------------------|
A-|-------------------------------------3-3-3-2-3-3-3-3-2-3-3-3-2-3-3-3-3-3-|
E-|-3-3-3-3-3-3-3-3-3-1-1-1-1-1-1-1-1-1-------------------------------------|
I wonder
I wonder why
I wonder
I wonder why

G-|---------------------------------------------------------------------------|
D-|---------------------------------------------------------------------------|
A-|-3-3-3-3-3---------3-3-3-3-3---------3-3-3-3-3-----------------------------|
E-|-----------3-3-3-3-----------3-3-3-3-----------3-3-3-3-1-1-1-1-1-1-1-1-1-3-|

G-|---------------------------------------------------------------------------|
D-|---------------------------------------------------------------------------|
A-|-3-3-3-3-3---------3-3-3-3-3---------3-3-3-3-3-----------------------------|
E-|-----------3-3-3-3-----------3-3-3-3-----------3-3-3-3-1-1-1-1-1-1-1-1-1-3-|


G-|-----------------------------------------------------------------------|
D-|-----------------------------------------------------------------------|
A-|-3-3-3-3-3---------3-3-3-3-3---------3-3-3-3---------------------------|
E-|-----------3-3-3-3-----------1-1-1-1---------3-3-3-3-1-1-1-1-1-1-1-1-3-|
Indication of infatuation
complicates this situation
its making me search out a real escape
this creation of this relation
and concentration of admiration
has got me dumb and all bent out of shape

G-|-------------------------------------------------------------------------|
D-|-------------------------------------------------------------------------|
A-|-------------------------------------3-3-3-2-3-3-3-3-2-3-3-3-2-3-3-3-3-3-|
E-|-3-3-3-3-3-3-3-3-3-1-1-1-1-1-1-1-1-1-------------------------------------|
I wonder
I wonder why
I wonder
I wonder why

G-|-------------------------------------------------------------------------|
D-|-------------------------------------------------------------------------|
A-|-------------------------------------------------------3-3-3-3-3-3-3-3-3-|
E-|-3-3-3-3-3-3-3-3-3-5-5-5-5-5-5-5-5-5-1-1-1-1-1-1-1-1-1-------------------|
but Im ignorant stubborn and stupid I wont take the time to give in
to the fact that I must wait and let him show me where to begin
if I go ahead and try to find her by myself Ill make a mistake
when will I learn that this big decision is not mine to fully make

G-|---------------------------------------------------------------------------|
D-|---------------------------------------------------------------------------|
A-|-3-3-3-3-3---------3-3-3-3-3---------3-3-3-3-3-----------------------------|
E-|-----------3-3-3-3-----------3-3-3-3-----------3-3-3-3-1-1-1-1-1-1-1-1-1-3-|

G-|---------------------------------------------------------------------------|
D-|---------------------------------------------------------------------------|
A-|-3-3-3-3-3---------3-3-3-3-3---------3-3-3-3-3-----------------------------|
E-|-----------3-3-3-3-----------3-3-3-3-----------3-3-3-3-1-1-1-1-1-1-1-1-1-3-|


G-|-----------------------------------------------------------------------|
D-|-----------------------------------------------------------------------|
A-|-3-3-3-3-3---------3-3-3-3-3---------3-3-3-3---------------------------|
E-|-----------3-3-3-3-----------1-1-1-1---------3-3-3-3-1-1-1-1-1-1-1-1-3-|
With this now that I must mention
so I can stop this stupid tension
and free myself from feeling selfish greed
my sinful motives and bad intentions
has been brought to my attention
and even though I know I deny need

G-|-------------------------------------------------------------------------|
D-|-------------------------------------------------------------------------|
A-|-------------------------------------3-3-3-2-3-3-3-3-2-3-3-3-2-3-3-3-3-3-|
E-|-3-3-3-3-3-3-3-3-3-1-1-1-1-1-1-1-1-1-------------------------------------|
I wonder
I wonder why
I wonder
I wonder why

G-|-------------------------------------------------------------------------|
D-|-------------------------------------------------------------------------|
A-|-------------------------------------------------------3-3-3-3-3-3-3-3-3-|
E-|-3-3-3-3-3-3-3-3-3-5-5-5-5-5-5-5-5-5-1-1-1-1-1-1-1-1-1-------------------|
but Im ignorant stubborn and stupid I wont take the time to give in
to the fact that I must wait and let him show me where to begin
if I go ahead and try to find her by myself Ill make a mistake
when will I learn that this big decision is not mine to fully make

G-|---------------------------------------------------------------------------|
D-|---------------------------------------------------------------------------|
A-|-3-3-3-3-3---------3-3-3-3-3---------3-3-3-3-3-----------------------------|
E-|-----------3-3-3-3-----------3-3-3-3-----------3-3-3-3-1-1-1-1-1-1-1-1-1-3-|

G-|---------------------------------------------------------------------------|
D-|---------------------------------------------------------------------------|
A-|-3-3-3-3-3---------3-3-3-3-3---------3-3-3-3-3-----------------------------|
E-|-----------3-3-3-3-----------3-3-3-3-----------3-3-3-3-1-1-1-1-1-1-1-1-1-3-|

Comments about this tab

Fbar58 - 2005-09-22

e-----------------------------------------0---------0----0-x-0-x-0-
B----2--2-2-----------x-----------------2---2-----2---2--3-x-3-x-3-
G---2-2--2---4/6-6-6--x--5(f)/2------\4---------2--------2-x-2-x-2-
D------------4/6-^-6--x----------------------------------0-x-0-x-0-
A-0----------2/4-4-4--x--------------------------------------------

(f)/= full bend up and slide


Add a comment/correction

Complimentary Christian Ringtones
Dadamobile and CGR have teamed up to bring your favorite Christian artists right to your phone. Sign up today and get 10 complementary ringtones!
Tab Country
Did you know CGR has a sister site w/ country guitar tabs? Well we do! Its called Tab Country. It has a great archive with a lot of country tabs.
Rockin Tabs
Are you looking for a site that has rock guitar tabs? Then Rockintabs.com is the place for you. It is a budding site with many rock guitar tabs. Submit your tab today.
Tab Gallery
Tab Gallery has a compilation of christian, rock, and country tabs all in one place. Come visit us.