Bass Tabs
(THIRD DAY) OR BY ARTIST NAME (JENNIFER KNAPP)
0-9|A|B|C|D|E|F|G|H|I|J|K|L|M|N|O|P|Q|R|S|T|U|V|W|X|Y|Z

Join Us Today!

Don't strum alone...
be a part of the largest online Christian music community. Browse thousands of guitar tabs and chat w/ musicians like yourself.


It's Free!

Audio Adrenaline - Mighty Good Leader

This tab has been rated a 3.75 out of 5 for accuracy. (4 votes)Sorry, but you must be logged in to rate this tab.
Click here to log-in, or you can click here to register.
(Registration is free)

All songs owned by Integrity and Brentwood-Benson are used by permission. If you make copies of any song on this website, be sure to report your usage to CCLI.
Song Title: mighty good leader
Artist: audio adrenaline
Album: Underdog
Tabbed by: Simon Sigfridsson

Intro
|---------------------------------------|
|------7-7------7-7------5-5-------4-4--| 2x
|-0-0------0-0------3-3-------5-5-------|
|---------------------------------------|

vers:  4x
|--------------------------------|
|--------------------------------|
|--------------------------------|
|-5----5--3--0---5--5---5--3--0--|

|--------------------------------|
|-------------------------2-2----| 
|-------------------0-3-0--------|
|-5----5--3--0---5---------------|


pre-chorus:
|-----------------------|
|-----------------------| 2x
|-3---3-----------------|
|------3---5--/-12--12--|

chorus: 
|---------------------------------------|
|------7-7------7-7------5-5-------4-4--| 3x
|-0-0------0-0------3-3-------5-5-------|
|---------------------------------------|

|-------------------------------|
|-------------------------------|
|0------------------------------|
|-------------------------------| 


Interlude: (no bass but you can play like this)
|--------------|
|--5-7---------| 2x
|------5-7-5-7-|
|-5------------|

vers 2:   2x
|--------------------------------|
|--------------------------------|
|--------------------------------|
|-5----5--3--0---5--5---5--3--0--|

|--------------------------------|
|-------------------------2-2----| 
|-------------------0-3-0--------|
|-5----5--3--0---5---------------|

pre-chorus:
|-------------------------|
|-------------------------| 2x
|-3---3-------------------|
|--------3---5--/-12--12--|

chorus

bridge:  (dist & tremolo off)
|---2----|--------|---------|--------|
|--------|--------|---------|--------| 
|-0------|--------|-3-------|-5------|
|--------|--------|---------|--------| 

|---2----|--------|---------|-------------|
|--------|--------|---------|-------------| 
|-0------|--------|-3-------|-5---5/7-5---|
|--------|--------|---------|-----------8-| 

|--------|--------|---------|--------|
|--------|--------|---------|--------| 
|-0------|--------|-3-------|-5------|
|--------|--------|---------|--------| 

|---2----|--------|---------|--------|
|--------|--------|---------|--------| 
|-0------|--------|-3-------|-5--7-7-|
|--------|--------|---------|--------| 


chorus: 
Only song but it ends with
|-------------------------|
|-------------------------|
|-12-12-12-12-12-12-12-12-|
|-------------------------|

chorus 


coments? questions? email me at
swimp@hehe.com

Comments about this tab

No comments/corrections found. Add your own

Complimentary Christian Ringtones
Dadamobile and CGR have teamed up to bring your favorite Christian artists right to your phone. Sign up today and get 10 complementary ringtones!
Tab Country
Did you know CGR has a sister site w/ country guitar tabs? Well we do! Its called Tab Country. It has a great archive with a lot of country tabs.
Rockin Tabs
Are you looking for a site that has rock guitar tabs? Then Rockintabs.com is the place for you. It is a budding site with many rock guitar tabs. Submit your tab today.
Tab Gallery
Tab Gallery has a compilation of christian, rock, and country tabs all in one place. Come visit us.