Bass Tabs
(THIRD DAY) OR BY ARTIST NAME (JENNIFER KNAPP)
0-9|A|B|C|D|E|F|G|H|I|J|K|L|M|N|O|P|Q|R|S|T|U|V|W|X|Y|Z

Join Us Today!

Don't strum alone...
be a part of the largest online Christian music community. Browse thousands of guitar tabs and chat w/ musicians like yourself.


It's Free!

This tab has been rated a 4.67 out of 5 for accuracy. (6 votes)Sorry, but you must be logged in to rate this tab.
Click here to log-in, or you can click here to register.
(Registration is free)

All songs owned by Integrity and Brentwood-Benson are used by permission. If you make copies of any song on this website, be sure to report your usage to CCLI.
Submitted by: bassdude08

Hey I play this song in my church band and were pretty good at it but I hope
that I can tab this right.. its my first tab ive done

Drop D tuning.

Meant to Live - Switchfoot

 *=bean \=slide down
G -----------------------------------------------------------------------------
D ------(4*)-----(4*)-----(4*)-------------------(4*)-----(4*)-----(4*)--------
A -222------000------------------------0---222----000--------------------------
D --------------------222-----2-0-0-2----------------------222-------44444444-5

G -------------------------------------------------------------------------
D -------------------------------------------------------------------------
A -------------------------------------------------------------------------
D 4-0-0-2-0-0-4-0-0-454-4-0-0-2-0-0-4-0-0-457-5 (pause)--------------------  x3

G -----------------------------------------------------------------------------
D -----------------------------------------------------------------------------
A ----000-222------------------------------------------000-222-----------------
D 555---------222-(4/)-555--222-(4/)-555--222-2-0--555---------222-(4/)-555-222

G -------------------------------------------------------------------------   
D -------------------------------------------------------------------------   
A -------------------------------------------------------------------------   
D 4-0---2-0---4-0---454-4-0---2-0---4-0---457-5 (pause)-------------------- x3

G -----------------------------------------------------------------------------
D -----------------------------------------------------------------------------
A ----000-222------------------------------------------000-222-----------------
D 555---------222-(4/)-555--222-(4/)-555--222-2-0--555---------222-(4/)-555-222

G -----------------------------------------------------------------------------
D -----(4*)----(4*)-----(4*)------------------(4*)-----(4*)------(4*)----------
A 222------000-----------------------0----222------000-------------------------
D ------------------222-----2-0-0-2--------------------------222-------44444444

G---------0-7-12-0-00-7-12----------0-7-12-0-00-7-12-----------0-----7-----12--
D-0------------------------0-------------------------0-------------------------
A------------------------------------------------------------------------------
D------------------------------------------------------------------------------

G----------------------------------
D----------------------------------
A-333333333333333------------------
D------------------5555555555555555

G --------------------------------[------------------------------]Repeat
D --------------------------------[------------------------------] part
A --------------------------------[------------------------------]  in
D -12/-0---000000000000000-444444-[12/-0---000000000000000-444444] []'s

G ----------------------------
D -------(4*)----(4*)---------
A --222------000--------------
D ----------------------2-----

Okay, now have fun playing Meant to Live... It's a pretty fun song to play...
The bends are optional, but if you do them you have to make them sound just 
right.

Comments about this tab

No comments/corrections found. Add your own

Complimentary Christian Ringtones
Dadamobile and CGR have teamed up to bring your favorite Christian artists right to your phone. Sign up today and get 10 complementary ringtones!
Tab Country
Did you know CGR has a sister site w/ country guitar tabs? Well we do! Its called Tab Country. It has a great archive with a lot of country tabs.
Rockin Tabs
Are you looking for a site that has rock guitar tabs? Then Rockintabs.com is the place for you. It is a budding site with many rock guitar tabs. Submit your tab today.
Tab Gallery
Tab Gallery has a compilation of christian, rock, and country tabs all in one place. Come visit us.