Bass Tabs
(THIRD DAY) OR BY ARTIST NAME (JENNIFER KNAPP)
0-9|A|B|C|D|E|F|G|H|I|J|K|L|M|N|O|P|Q|R|S|T|U|V|W|X|Y|Z

Join Us Today!

Don't strum alone...
be a part of the largest online Christian music community. Browse thousands of guitar tabs and chat w/ musicians like yourself.


It's Free!

This tab has been rated a 5.00 out of 5 for accuracy. (5 votes)Sorry, but you must be logged in to rate this tab.
Click here to log-in, or you can click here to register.
(Registration is free)

All songs owned by Integrity and Brentwood-Benson are used by permission. If you make copies of any song on this website, be sure to report your usage to CCLI.
Submitted by: flyingcow230

Song Name: I've Always Loved You
Album:  Time
Artist:  Third Day
Copyright:  1999 New Spring Publishing / ASCAP

I tabbed the whole song and i'm sure its 100% acurate

Verse 1                 (only first part)

G-------------------14----13----14--13-----
D----9/14----13------------------------------
A------------------------------------------14-
E----------------------------------------------
                           3x

Chorus 1                 (only first part)

G---------14---------------14------------------14------------------14----------
D----11-------14----11----------14-----11---------14----13---11---------14----9
A------------------------------------------------------------------------------
E------------------------------------------------------------------------------

Verse *
G------------------------------------
D-------------7----6----7-6--------
A----7---6--------------------------
E-------------------------------7----
                      3x

Chorus*
G---------------------------------------------------------------------------------------------
D--7--6----------------------7--6---------------------7--6------------------------------------
A---------7----4-4------7----------7--4-4-------7-----------7--4-4--------7--6--4*------7-----
E-------------------5------------------------5-------------------------5-------------5-----7--

then..........

Verse   2x
Chorus  2x             *(hold the last C# the second time through)=4 fret a string
Verse   3x

Well thats it. This is my first tab and i'm pretty sure its 100% acurate.
Enjoy!!
mooman230@yahoo.com..............e-mail me if u have any questions:)

Comments about this tab

No comments/corrections found. Add your own

Complimentary Christian Ringtones
Dadamobile and CGR have teamed up to bring your favorite Christian artists right to your phone. Sign up today and get 10 complementary ringtones!
Tab Country
Did you know CGR has a sister site w/ country guitar tabs? Well we do! Its called Tab Country. It has a great archive with a lot of country tabs.
Rockin Tabs
Are you looking for a site that has rock guitar tabs? Then Rockintabs.com is the place for you. It is a budding site with many rock guitar tabs. Submit your tab today.
Tab Gallery
Tab Gallery has a compilation of christian, rock, and country tabs all in one place. Come visit us.