Bass Tabs
(THIRD DAY) OR BY ARTIST NAME (JENNIFER KNAPP)
0-9|A|B|C|D|E|F|G|H|I|J|K|L|M|N|O|P|Q|R|S|T|U|V|W|X|Y|Z

Join Us Today!

Don't strum alone...
be a part of the largest online Christian music community. Browse thousands of guitar tabs and chat w/ musicians like yourself.


It's Free!

This tab has been rated a 4.75 out of 5 for accuracy. (4 votes)Sorry, but you must be logged in to rate this tab.
Click here to log-in, or you can click here to register.
(Registration is free)

All songs owned by Integrity and Brentwood-Benson are used by permission. If you make copies of any song on this website, be sure to report your usage to CCLI.
Submitted by: natedawg5280

Artist: Bleach
Song: Get Out
Album:  Astronomy
Tabbed By: natedawg

great song (standard tuning)


                Intro

G-----0---------------------------
D----0-4-20-----------------------
E--22---2-------------------------
A--------------------------------- 4X

               Chorus

G---------------------------------
D---------------------------------
A-22222222222222------------------
E----------------000000000000000- 2X

            Verse intro

G---------------------------------
D-----------0---------------------
A-2-2---0-------------------------
E--------------------------------- 4X

               Verse 

G---------------------------------
D----------------0000-------------
A-22222222-0000-------------------
E--------------------------------- 4X

CHORUS 2X
VERSE INTRO 5x
VERSE 4x
CHORUS 4x
INTRO 4x
CHORUS 8x
INTRO 1x

Comments about this tab

No comments/corrections found. Add your own

Complimentary Christian Ringtones
Dadamobile and CGR have teamed up to bring your favorite Christian artists right to your phone. Sign up today and get 10 complementary ringtones!
Tab Country
Did you know CGR has a sister site w/ country guitar tabs? Well we do! Its called Tab Country. It has a great archive with a lot of country tabs.
Rockin Tabs
Are you looking for a site that has rock guitar tabs? Then Rockintabs.com is the place for you. It is a budding site with many rock guitar tabs. Submit your tab today.
Tab Gallery
Tab Gallery has a compilation of christian, rock, and country tabs all in one place. Come visit us.