Bass Tabs
(THIRD DAY) OR BY ARTIST NAME (JENNIFER KNAPP)
0-9|A|B|C|D|E|F|G|H|I|J|K|L|M|N|O|P|Q|R|S|T|U|V|W|X|Y|Z

Join Us Today!

Don't strum alone...
be a part of the largest online Christian music community. Browse thousands of guitar tabs and chat w/ musicians like yourself.


It's Free!

This tab has been rated a 5.00 out of 5 for accuracy. (3 votes)Sorry, but you must be logged in to rate this tab.
Click here to log-in, or you can click here to register.
(Registration is free)

All songs owned by Integrity and Brentwood-Benson are used by permission. If you make copies of any song on this website, be sure to report your usage to CCLI.
Submitted by: roydukkey

Now Is The Time
Far From Nowhere
Slick Shoes

* Let Ring

Intro (come in second time round)
|------------------------------------------|
|-----------------222-33-33-222------------|
|-55-55-000-11-11---------------33-33-000--| 1x
|------------------------------------------|

Verse 1
|---------------------------------------|
|---------------------------------------|
|--55555555----------88888888-----------| 4x
|-----------66666666----------88888888--|

Chorus
|------------------------------------------|
|-----------------222-33-33-222------------|
|-55-55-000-11-11---------------33-33-000--| 2x
|------------------------------------------|

Verse 2
|---------------------------------------|
|---------------------------------------|
|--55555555----------88888888-----------| 2x
|-----------66666666----------88888888--|

|-----------------------------------------------------------------|
|-----------------------------------------------------------------|
|--55-55-5-------88-88-8-------55-55-5-------88-88-8-------12-10--|
|----------66-66---------88-88---------66-66---------8888---------|

Chorus
|------------------------------------------|
|-----------------222-33-33-222------------|
|-55-55-000-11-11---------------33-33-000--| 2x
|------------------------------------------|

Bridge
|---------------------------------------------|
|---------------------------------------------|
|-5*---8*--------5*---8*---10-878*-10-878-----| 
|-----------6*---------------------------87*--|
  |______________________|_ _ _ _ _ _ _ _ _ _ _ _ _ _ _ _ _ _ _ _ _ 
                                                                   |
|-------------------------------------------------------|          |
|-------------------------------------------------------|          |
|-55555555-88888888------------------55555555-88888888--|          |
|-------------------6666666666666666--------------------|          |
		       ^ 16 times                                  |
                                                                   |
|------------------------|                                         |
|------------------------|                                         |
|-10-878*-10-878-----55--|                                         |
|---------------87*------|                                         |
                                                                   |
Chorus (donít play first time round)                               |
|-----------|                                                      |
|-----------|                                                      |
|-33333333--|                                                      |
|-----------|                                                      |
                                                                   |
|------------------------------------------|                       |
|-----------------222-33-33-222------------|                       |
|-55-55-000-11-11---------------33-33-000--| 3x                    |
|------------------------------------------|                       |
                                                                   |
|--------|                                                         |
|--------|                                                         |
|-55555--|                                                         |
|--------|                                                         |
                                                                   |
These tabs are almost 100% correct, but there is an odd beat play during the
begining of the brige you will just have to figure something out.

This is one of my favorite songs hope you have fun with it too.
      ~roydukkey~

Comments about this tab

No comments/corrections found. Add your own

Complimentary Christian Ringtones
Dadamobile and CGR have teamed up to bring your favorite Christian artists right to your phone. Sign up today and get 10 complementary ringtones!
Tab Country
Did you know CGR has a sister site w/ country guitar tabs? Well we do! Its called Tab Country. It has a great archive with a lot of country tabs.
Rockin Tabs
Are you looking for a site that has rock guitar tabs? Then Rockintabs.com is the place for you. It is a budding site with many rock guitar tabs. Submit your tab today.
Tab Gallery
Tab Gallery has a compilation of christian, rock, and country tabs all in one place. Come visit us.