Bass Tabs
(THIRD DAY) OR BY ARTIST NAME (JENNIFER KNAPP)
0-9|A|B|C|D|E|F|G|H|I|J|K|L|M|N|O|P|Q|R|S|T|U|V|W|X|Y|Z

Join Us Today!

Don't strum alone...
be a part of the largest online Christian music community. Browse thousands of guitar tabs and chat w/ musicians like yourself.


It's Free!

This tab has been rated a 4.73 out of 5 for accuracy. (11 votes)Sorry, but you must be logged in to rate this tab.
Click here to log-in, or you can click here to register.
(Registration is free)

All songs owned by Integrity and Brentwood-Benson are used by permission. If you make copies of any song on this website, be sure to report your usage to CCLI.
Submitted by: drumboi21

Song: Pressing On
Artist: Relient k
Album: Anatomy of tongue in cheek

I found a couple things wrong with the other tab so i corrected them and here you are

(intro(no bass 1st time through))
G|---------------|
D|---------------|
A|--4}----1}-----| x4
E|-----4}----2}--|
                                 

(verse)
G|------------------|
D|------------------|
A|--4-1------------|x3 (on 4th time, hold notes)
E|----------4--2----| 
  (play this really fast)


(prechorus)
G|------------------------------------------------------|
D|--01-111---01-111---34-444---34-444-------------------|
A|--------------------------------------4~--------------|x2
E|-------------------------------------------44-4-444---|

G|---------------------|
D|---------------------|
A|---------------------|
E|--2-2-222-244-444----|

(chorus)
G|--------------|
D|--------------|
A|--4}----1}----| x4
E|-----4}----4}-|
                                 
G-------|
D-------|
A-------|
E-2}-4}-|

(chorus progr.)x2

(to verse)
(chorus)
(chorus progr.)x2
(intro)x4
(last line of chorus)
(chorus)

(ending)
       
G|----------------------------------------------|
D|----------------------------------------------|
A|-4}-------1}-4}-------4}-------1}-4}-------4~-|
E|----2}-4}-------2}-4}----2}-4}-------2~-4~----|

Im pretty sure these are 100% correct 
enjoy
Godbless

Comments about this tab

calazoid - 2004-11-26

i like this tab


Add a comment/correction

Complimentary Christian Ringtones
Dadamobile and CGR have teamed up to bring your favorite Christian artists right to your phone. Sign up today and get 10 complementary ringtones!
Tab Country
Did you know CGR has a sister site w/ country guitar tabs? Well we do! Its called Tab Country. It has a great archive with a lot of country tabs.
Rockin Tabs
Are you looking for a site that has rock guitar tabs? Then Rockintabs.com is the place for you. It is a budding site with many rock guitar tabs. Submit your tab today.
Tab Gallery
Tab Gallery has a compilation of christian, rock, and country tabs all in one place. Come visit us.