Bass Tabs
(THIRD DAY) OR BY ARTIST NAME (JENNIFER KNAPP)
0-9|A|B|C|D|E|F|G|H|I|J|K|L|M|N|O|P|Q|R|S|T|U|V|W|X|Y|Z

Join Us Today!

Don't strum alone...
be a part of the largest online Christian music community. Browse thousands of guitar tabs and chat w/ musicians like yourself.


It's Free!

This tab has been rated a 5.00 out of 5 for accuracy. (2 votes)Sorry, but you must be logged in to rate this tab.
Click here to log-in, or you can click here to register.
(Registration is free)

All songs owned by Integrity and Brentwood-Benson are used by permission. If you make copies of any song on this website, be sure to report your usage to CCLI.
Submitted by: coolguy4553

 'Til the Day I Die
 Third Day
 Album: Wire
 Lyrics: Mac Powell
 Music: Third Day
 (c) 2004 Consuming Fire Music
 Tabbed By: Joshua Forren (jf_2000_23860@yahoo.com)
 
 Intro:
 G-|-----------------------|  
 D-|-----------------------| 
 A-|-------------0h2 x4----| 4x (you gotta listen to get it down good)
 E-|--0h2 x4---------------|   
 
 Verse:       
 G-|-----------------------------|
 D-|-----------------------------|
 A-|-----2----------0h2 x4-------|    x2(yet again gotta listen to get it)
 E-|--2-----0h2 x4---------------|        
 
 Chorus:      
 G-|---------------------------------------------|
 D-|---------------------------------------------|
 A-|---5-0-------5-0-2--5-0-------5-0-4----------|
 E-|--------0-2--------------0-2-----------------|
 Intro
 Verse
 Chours

 Bridge:                                    
 G-|-----------------------------------|
 D-|-----------------------------------|
 A-|---5-----5--------5------5--2------|
 E-|------2----2--0------2-------------|
  the do the chours 2x.....then the outro which is the same as the inrto 
 to the end of the song.


any questions email me or pm me on this site at coolguy4553.

enjoy.                                                            
   

Comments about this tab

bv_45 - 2005-01-04

When you go through the riff, the first one is more like e-8-10-11--10-11-8-----
b------------------11--


klondike - 2005-08-03

No^. Take out the last 8,
e-8-10-11-10-11--
b---------------11

i think like that


Add a comment/correction

Complimentary Christian Ringtones
Dadamobile and CGR have teamed up to bring your favorite Christian artists right to your phone. Sign up today and get 10 complementary ringtones!
Tab Country
Did you know CGR has a sister site w/ country guitar tabs? Well we do! Its called Tab Country. It has a great archive with a lot of country tabs.
Rockin Tabs
Are you looking for a site that has rock guitar tabs? Then Rockintabs.com is the place for you. It is a budding site with many rock guitar tabs. Submit your tab today.
Tab Gallery
Tab Gallery has a compilation of christian, rock, and country tabs all in one place. Come visit us.