Bass Tabs
(THIRD DAY) OR BY ARTIST NAME (JENNIFER KNAPP)
0-9|A|B|C|D|E|F|G|H|I|J|K|L|M|N|O|P|Q|R|S|T|U|V|W|X|Y|Z

Join Us Today!

Don't strum alone...
be a part of the largest online Christian music community. Browse thousands of guitar tabs and chat w/ musicians like yourself.


It's Free!

This tab has been rated a 3.83 out of 5 for accuracy. (6 votes)Sorry, but you must be logged in to rate this tab.
Click here to log-in, or you can click here to register.
(Registration is free)

All songs owned by Integrity and Brentwood-Benson are used by permission. If you make copies of any song on this website, be sure to report your usage to CCLI.
Submitted by: scheller

Majesty [Here I Am]
Delirious?
Album: WORLD SERVICE
Copyright 2003: Curious? UK
Words and Music by Martin Smith and Stuart Garrard

Transcribed by scheller    sonnyschell@hotmail.com
This is note for note as far as I can tell.
I tabbed this from the free mp3 available on Delirious' website.

 Intro                                                              2x
|--rest---|------4-2-----||------------4-2-----|-----------4-2------||
|---3-----|----------4-0-||o-0-------------4-0-|-0-------------4-0-o||
|--bars---|--------------||o---4-2-------------|---4-2-------------o||
|---------|--------------||--------------------|--------------------||


 Verse 1
|---------4-2-----|---------4-2-----|-------4-2-----|---------4-2-----|
|-0-----------4-0-|-0-----------4-0-|-----------4-0-|-0-----------4-0-|
|---4-2-----------|---4-2-----------|---------------|---4-2-----------|
|-----------------|-----------------|-2-------------|-----------------|


|-------4-2-----|-----------|---------4-2-----|---------4-2-----|
|-----------4-0-|-----------|-0-----------4-0-|-0-----------4-0-|
|---------------|-4----1----|---4-2-----------|---4-2-----------|
|-2-------------|-----------|-----------------|-----------------|


|-------4-2-----|---------4-2-----|-------4-2-----|-------------||
|-----------4-0-|-0-----------4-0-|-----------4-0-|-------------||
|---------------|---4-2-----------|---------------|-4----1------||
|-2-------------|-----------------|-2-------------|---------2---||


 Pre-Chorus
|-----------|--------------|-----------|-------------|
|-----------|--------------|-----------|-------------|
|-2----4----|-5----5-5--/5-|-2----4----|-5----5-5----|
|-----------|--------------|-----------|-------------|


|-------------|-----------|------------||
|-------------|-----------|------------||
|-------------|-----------|------------||
|-4----4-4-4--|-3----3----|-3----3-3---||


   Chorus 1                                1st ending  2x 2nd ending
||--------------|-------------|-----------|------------||-------4-2-----||
||o-------------|-------------|-----------|-----------o||-----------4-0-||
||o-5---5/7--5--|-----7/9--7--|-2---4--5--|-----------o||---------------||
||--------------|-5-----------|-----------|-3---3--2---||-3-------------||


  Verse 2
|---------4-2-----|---------4-2-----|-------4-2-----|---------4-2-----|
|-0-----------4-0-|-0-----------4-0-|-----------4-0-|-0-----------4-0-|
|---4-2-----------|---4-2-----------|---------------|---4-2-----------|
|-----------------|-----------------|-2-------------|-----------------|


|-------4-2-----|-------4-2-----|---------4-2-----|---------4-2-----|
|-----------4-0-|-----------4-0-|-0-----------4-0-|-0-----------4-0-|
|---------------|-4---1---------|---4-2-----------|---4-2-----------|
|-2-------------|---------------|-----------------|-----------------|


|-------4-2-----|---------4-2-----|-------4-2-----|-------------||
|-----------4-0-|-0-----------4-0-|-----------4-0-|-------------||
|---------------|---4-2-----------|---------------|-4----1------||
|-2-------------|-----------------|-2-------------|---------2---||


 Pre-Chorus 2
|-----------|--------------|-----------|-------------|
|-----------|--------------|-----------|-------------|
|-2----4----|-5----5-5--/5-|-2----4----|-5----5-5----|
|-----------|--------------|-----------|-------------|


|------------|------------|------------||
|------------|------------|------------||
|------------|------------|------------||
|-4----4-4---|-3----3-3---|-3----3-3---||


   Chorus 2                                 1st-3rd end. 4x
||--------------|-------------|------------|-------------||
||o-------------|-------------|------------|------------o||
||o-5---5/7--5--|-----7/9--7--|-2----4--5--|------------o||
||--------------|-5-----------|------------|-3----3--5---||


                   Bridge
  4th ending                                               4x
|-------4-2-----||------------4-2-----|-----------4-2------||
|-----------4-0-||o-0-------------4-0-|-0-------------4-0-o||
|---------------||o---4-2-------------|---4-2-------------o||
|-3-------------||--------------------|--------------------||


  Out-Chorus                                               3x
||---------------|--------------|------------|-------------||
||o--------------|--------------|------------|------------o||
||o-5----5/7--5--|------7/9--7--|-2----4--5--|------------o||
||---------------|-5------------|------------|-3----3--2---||


|--------------|--------------|------------|----------*|
|--------------|--------------|------------|----------*|
|-5----5/7--5--|------7/9--7--|-2----4--5--|----------*|
|--------------|-5------------|------------|-3--------*|


Generated using Power Tab Editor by Brad Larsen

Comments about this tab

No comments/corrections found. Add your own

Complimentary Christian Ringtones
Dadamobile and CGR have teamed up to bring your favorite Christian artists right to your phone. Sign up today and get 10 complementary ringtones!
Tab Country
Did you know CGR has a sister site w/ country guitar tabs? Well we do! Its called Tab Country. It has a great archive with a lot of country tabs.
Rockin Tabs
Are you looking for a site that has rock guitar tabs? Then Rockintabs.com is the place for you. It is a budding site with many rock guitar tabs. Submit your tab today.
Tab Gallery
Tab Gallery has a compilation of christian, rock, and country tabs all in one place. Come visit us.