Bass Tabs
(THIRD DAY) OR BY ARTIST NAME (JENNIFER KNAPP)
0-9|A|B|C|D|E|F|G|H|I|J|K|L|M|N|O|P|Q|R|S|T|U|V|W|X|Y|Z

Join Us Today!

Don't strum alone...
be a part of the largest online Christian music community. Browse thousands of guitar tabs and chat w/ musicians like yourself.


It's Free!

This tab has not yet been rated for accuracy.Sorry, but you must be logged in to rate this tab.
Click here to log-in, or you can click here to register.
(Registration is free)

All songs owned by Integrity and Brentwood-Benson are used by permission. If you make copies of any song on this website, be sure to report your usage to CCLI.
Submitted by: bassplayer1

Wit's All Been Done Before
Relient K
Employee of the Month
Tabbed by: Kyle Foley

Intro
D-----4444----4444----2222----2222
A-2222----2222----2222----2222----   x2

Verse
D-----4444----4444----2222----2222
A-2222----2222----2222----2222----

D-------------4444----2222----2222
A-2222----2222----2222----2222----
E-----2222------------------------

Prechorus
A-22222222222222222222222222222222  at end when it gets faster play D4 
  xxxxxxxxxxxxxxxxxxxxxxxxxxxxxxxx

Media Part
A-2-----2------2-----2-----
E--2-4-0-2-4-00-2-4-0-2-4-0

Chorus
A-222222------------4444--------------
E-------000000-44-22-----000000-222222

Intro x1 Then play...
D-------------4444----4444----2222
A-2222----2222----2222----2222----
E-----2222------------------------

Verse x1
Prechorus x1
Media Part x1
Chorus x2

Bridge
D---22-44-22--22-44-2-2-4------
A-22--------22-----------4-0-2-
E-----------------------------2

A-444444-000000-222222-4-0-2-4-0-2
E---------------------2-----2-----

Let guitars do this twice, then come in
E-444444-222222-000000-444444-000000---

Chorus x1
Media Part x1 Come in on open E's
Chorus x2
Verse x1

Comments about this tab

No comments/corrections found. Add your own

Complimentary Christian Ringtones
Dadamobile and CGR have teamed up to bring your favorite Christian artists right to your phone. Sign up today and get 10 complementary ringtones!
Tab Country
Did you know CGR has a sister site w/ country guitar tabs? Well we do! Its called Tab Country. It has a great archive with a lot of country tabs.
Rockin Tabs
Are you looking for a site that has rock guitar tabs? Then Rockintabs.com is the place for you. It is a budding site with many rock guitar tabs. Submit your tab today.
Tab Gallery
Tab Gallery has a compilation of christian, rock, and country tabs all in one place. Come visit us.