Bass Tabs
(THIRD DAY) OR BY ARTIST NAME (JENNIFER KNAPP)
0-9|A|B|C|D|E|F|G|H|I|J|K|L|M|N|O|P|Q|R|S|T|U|V|W|X|Y|Z

Join Us Today!

Don't strum alone...
be a part of the largest online Christian music community. Browse thousands of guitar tabs and chat w/ musicians like yourself.


It's Free!

This tab has been rated a 4.17 out of 5 for accuracy. (6 votes)Sorry, but you must be logged in to rate this tab.
Click here to log-in, or you can click here to register.
(Registration is free)

All songs owned by Integrity and Brentwood-Benson are used by permission. If you make copies of any song on this website, be sure to report your usage to CCLI.
Submitted by: M_Sterling7

Song:Take my life
Artist:Jeremy Camp
Album:Stay


INTRO:x2
G:----------------------------------------------
D:----------------------------------------------
A:33333333-55555555-66666666-88888888-----------
E:----------------------------------------------

A:33333333-66665555-----------------------------
E:------------------3333333333333333------------

CHORUS:
A:33--11--------113333333311111111----------------
E:--------44--44------------------4444444433443344

BRIDGE:
E:11111111111111334444444444444444

VERSE:x3
A:33--11----------33--11--------
E:--------44--44----------44--44

-last part of verse play;
A:33-11----------33--11------------------
E:-------44--44----------4444444444444444

OUTRO:same as intro.

Well thats about it. this is the best i could figure out. but it mostly sounds 
right. the other tabs didnt sound anything like this song so i hope you 
epreciate this. as always thank you and GOD BLESS!

Comments about this tab

No comments/corrections found. Add your own

Complimentary Christian Ringtones
Dadamobile and CGR have teamed up to bring your favorite Christian artists right to your phone. Sign up today and get 10 complementary ringtones!
Tab Country
Did you know CGR has a sister site w/ country guitar tabs? Well we do! Its called Tab Country. It has a great archive with a lot of country tabs.
Rockin Tabs
Are you looking for a site that has rock guitar tabs? Then Rockintabs.com is the place for you. It is a budding site with many rock guitar tabs. Submit your tab today.
Tab Gallery
Tab Gallery has a compilation of christian, rock, and country tabs all in one place. Come visit us.