Bass Tabs
(THIRD DAY) OR BY ARTIST NAME (JENNIFER KNAPP)
0-9|A|B|C|D|E|F|G|H|I|J|K|L|M|N|O|P|Q|R|S|T|U|V|W|X|Y|Z

Join Us Today!

Don't strum alone...
be a part of the largest online Christian music community. Browse thousands of guitar tabs and chat w/ musicians like yourself.


It's Free!

Five Iron Frenzy - Third World Think Tank

This tab has been rated a 4.00 out of 5 for accuracy. (1 vote)Sorry, but you must be logged in to rate this tab.
Click here to log-in, or you can click here to register.
(Registration is free)

All songs owned by Integrity and Brentwood-Benson are used by permission. If you make copies of any song on this website, be sure to report your usage to CCLI.
Third World Think Tank
Five Iron Frenzy
Upbeats and Beatdowns
Tabbed out by:  Josiah Ziegler (tjziegle@piper.hamline.edu) 
Corrections/additions by: Gloria H. (the_insane_protagonist@yahoo.com)

The version that was already online was missing the whole bridge part, so I 
added it. I just did it on top of the original, though, so I gave the guy credit.


INTRO/Verse:
G|------------------------------------------------------------------|
D|--------------------------------------1--------1-22-0-----22-0----|
A|------------------00-33-00-33-22-44-----2-4-------------3-------3-|
E|--00-22-33-44-----------------------------------------------------|

Pre-Chorus:
G|-------------------------------|
D|-----------------1-4-1---1-4-1-|
A|-----------00-2-------2--------|
E|-00-22-33----------------------|

CHORUS:
G|----------------------    -------4--------------------------------|
D|----------------------(?) ---2-5----2--------------2-5-2---4-5-4--|
A|----------7-----------    ----------------4-5-4-3-------5---------|
E|-5-5-5-5---7-7-7-7-9--    ---------5------------------------------| 


(Note: When I listened to it I could only hear the first section of what's 
tabbed here. I left the rest in, anyway, but I only play the first part
of what's written in the chorus.)
Bridge 1

G---------------------------------------|
D---6-9-6---------------10--------------|
A-7----------4-7-4----7----7-----9-10-9-|
E----------5--------8---------10--------|

Bridge 2

G---6-9-6----------------------7-4---|
D-7----------9-6------2-3-2--5-----5-|
A----------7-----7--3----------------|
E------------------------------------|

Then: 

G-------------------------|
D-7-77--------------------|
A-------7-77--3-33--5-55--|
E-------------------------|



Let me know what I messed up.
~Gloria~

Comments about this tab

No comments/corrections found. Add your own

Complimentary Christian Ringtones
Dadamobile and CGR have teamed up to bring your favorite Christian artists right to your phone. Sign up today and get 10 complementary ringtones!
Tab Country
Did you know CGR has a sister site w/ country guitar tabs? Well we do! Its called Tab Country. It has a great archive with a lot of country tabs.
Rockin Tabs
Are you looking for a site that has rock guitar tabs? Then Rockintabs.com is the place for you. It is a budding site with many rock guitar tabs. Submit your tab today.
Tab Gallery
Tab Gallery has a compilation of christian, rock, and country tabs all in one place. Come visit us.