Bass Tabs
(THIRD DAY) OR BY ARTIST NAME (JENNIFER KNAPP)
0-9|A|B|C|D|E|F|G|H|I|J|K|L|M|N|O|P|Q|R|S|T|U|V|W|X|Y|Z

Join Us Today!

Don't strum alone...
be a part of the largest online Christian music community. Browse thousands of guitar tabs and chat w/ musicians like yourself.


It's Free!

This tab has been rated a 4.67 out of 5 for accuracy. (6 votes)Sorry, but you must be logged in to rate this tab.
Click here to log-in, or you can click here to register.
(Registration is free)

All songs owned by Integrity and Brentwood-Benson are used by permission. If you make copies of any song on this website, be sure to report your usage to CCLI.
Submitted by: Fast_Fingarz

Artist: Skillet
Album: Collide
Song: Under my skin

Tabbed by:  John Catlin

Yo, this is a great song and its conceptually easy to play.  Im surprised there 
wasn't a bass tab for it already.  Well here ya go, eye the tuning first.  It 
can be played in standard tuning, all strings dropped a half step.  On the 
verses, listen to the bass line closely to hear its details, becuase they're 
all in there, heh.  ANd of course, always listen to the timing on the CD to 
get this song just right.  Thx.

The bass kicks in when Kooper starts singing (after two bars of the intro) and 
it goes like this.

A#)--------------------------------------------------------
C#)--------------------------------------------------------
G#)--------0--0-0--2-2-2-----------------------------------
D#)-3-3-3-----------------3--3-3---------------------------

This basic pattern is played four times, on the fourth time, it looks like 
this.

A#)--------------------------------------------------------
C#)--------------------------------------------------------
G#)--------0--0-0--2-2-2--2/10-10-10-----------------------
D#)-3-3-3--------------------------------------------------


The chorus looks like this:

A#)--------------------------------------------------------
C#)------------------2h4-4---------------------------------
G#)-----00---2-2-0h2----------------2-2-0h2----------------
D#)-3-3---------------------3-3-0--------------------------

repeat this pattern three times, on the third time, don't play the last -0h2- 
and instead play just the 2 on that string.

The second verse is exact same as first, and the second chorus is the exact 
same as the first.


During the guitar solo right after chorus two, the bass part is the exact same 
as the last run through of the chorus pattern:

A#)--------------------------------------------------------
C#)------------------2h4-4---------------------------------
G#)-----00---2-2-0h2----------------2-2-2------------------
D#)-3-3---------------------3-3-0--------------------------


When the bass kicks in on the bridge, it plays twice and goes as follows:

A#)--------------------------------------------------------
C#)--------------------------------------------------------
G#)--------0--0-0--2-2-2--2--2-2---------------------------
D#)-3-3-3--------------------------------------------------

The remainder of the song is the Chorus pattern repeated numerous times.

There ya go.

Comments about this tab

No comments/corrections found. Add your own

Complimentary Christian Ringtones
Dadamobile and CGR have teamed up to bring your favorite Christian artists right to your phone. Sign up today and get 10 complementary ringtones!
Tab Country
Did you know CGR has a sister site w/ country guitar tabs? Well we do! Its called Tab Country. It has a great archive with a lot of country tabs.
Rockin Tabs
Are you looking for a site that has rock guitar tabs? Then Rockintabs.com is the place for you. It is a budding site with many rock guitar tabs. Submit your tab today.
Tab Gallery
Tab Gallery has a compilation of christian, rock, and country tabs all in one place. Come visit us.