Bass Tabs
(THIRD DAY) OR BY ARTIST NAME (JENNIFER KNAPP)
0-9|A|B|C|D|E|F|G|H|I|J|K|L|M|N|O|P|Q|R|S|T|U|V|W|X|Y|Z

Join Us Today!

Don't strum alone...
be a part of the largest online Christian music community. Browse thousands of guitar tabs and chat w/ musicians like yourself.


It's Free!

This tab has been rated a 4.60 out of 5 for accuracy. (5 votes)Sorry, but you must be logged in to rate this tab.
Click here to log-in, or you can click here to register.
(Registration is free)

All songs owned by Integrity and Brentwood-Benson are used by permission. If you make copies of any song on this website, be sure to report your usage to CCLI.
Submitted by: suicidal4christ

Song: College Kids
Artist: Relient K
Album: Two Lefts Don't Make a Right...But Three Do
Tabbed by: Joe Barnes

Additional credit goes to Sam Blake, who wrote the guitar tab for this song.
I started with his tab, and after making several necessary corrections, I
have this finished product.

Listen to the song for exact strum pattern and number of strokes.  I have made
no attempt in this tab to reflect the exact number of strokes during the fast
strumming parts.  Also, always remember that you can play 5th-fret E in place
of open A if it is easier for you.


Intro:
G|------------------------------------------------------------|
D|------------------------------------------------------------|
A|-3-------0-0-0-0-0-0-0-0------------------------------------|
E|--------------------------1-1-1-1-1-1-1-1--3-3-3-3-3-3-3-3--|

G|------------------------------------------------------------|
D|------------------------------------------------------------|
A|-3-3-3-3-3-3-3-3--0-0-0-0-0-0-0-0---------------------------|
E|-----------------------------------1-1-1-1-1-1-1-1--3-------|


Pre-verse: (2x)
G|---------------------------------|
D|---------0-0-0-0-----------------|
A|-3-3-3-3-------------------------|
E|-----------------1-1-1-1-3-3-3-3-|


Verse:
G|-----------------------------------------------------------------------|
D|-----------------------------------------------------------------------|
A|-3-3-3-3-3-3-3-3--0-0-0-0-----------3-3-3-3-3-3-3-3--0-0-0-0-----------|
E|---------------------------1-1-1-1----------------------------1-1-1-1--|

G|-----------------------------------------------------------------------|
D|-----------------------------------------------------------------------|
A|-3-3-3-3-3-3-3-3--0-0-0-0-----------3-3-3-3-3-3-3-3--0-0-0-0-----------|
E|---------------------------1-1-1-1----------------------------1-0-1----|

G|-------------|
D|-------------|
A|-------------|
E|-1--1--1--3--|


Chorus: (2x)
G|----------------------------------------------------------------|
D|----------------------------------------------------------------|
A|-3-3-3-3-3-3-3-3-3-3-3-3----------------------------------------|
E|--------------------------1-1-1-1-1-1-1-1--3-3-3-3-3-3-3-3------|


PRE-VERSE
VERSE
CHORUS


Bridge Pt. 1:
G|-----|
D|-----|
A|--3--|
E|-----|
(6x):
G|--------------------|
D|--------------------|
A|------3-3-------0---|
E|-1-1-------3-3----3-|


Bridge Pt.2 (this is the part that is mostly bass)  (4x):
G|-------------------------------------|
D|-------------------------------------|
A|-0-0-0-0--------------------3-3-3-3--|
E|----------3-3-3-3--1-1-1-1-----------|

G|-----------------|
D|-----------------|
A|-----------------|
E|-1-1-1-1--3------|


PRE-VERSE (jump in half-way through it, then 3x)


G|-----------------|
D|-----------------|
A|-----------------|
E|-1--1--1--3------|


CHORUS


Outro: (3x)
G|------------------------------------------------------------------------|
D|------------------------------------------------------------------------|
A|-3-3-3-3-3-3-3-3--0-0-0-0-0-0-0-0---------------------------------------|
E|-----------------------------------1-1-1-1-1-1-1-1--3-3-3-3-3-3-3-3-----|


End:

G|------------------------------------------------------------------------|
D|------------------------------------------------------------------------|
A|-3-3-3-3-3-3-3-3--0-0-0-0-0-0-0-0------------------------------3--------|
E|-----------------------------------1-1-1-1-1-1-1-1--3-------------------|

Comments about this tab

No comments/corrections found. Add your own

Complimentary Christian Ringtones
Dadamobile and CGR have teamed up to bring your favorite Christian artists right to your phone. Sign up today and get 10 complementary ringtones!
Tab Country
Did you know CGR has a sister site w/ country guitar tabs? Well we do! Its called Tab Country. It has a great archive with a lot of country tabs.
Rockin Tabs
Are you looking for a site that has rock guitar tabs? Then Rockintabs.com is the place for you. It is a budding site with many rock guitar tabs. Submit your tab today.
Tab Gallery
Tab Gallery has a compilation of christian, rock, and country tabs all in one place. Come visit us.