Bass Tabs
(THIRD DAY) OR BY ARTIST NAME (JENNIFER KNAPP)
0-9|A|B|C|D|E|F|G|H|I|J|K|L|M|N|O|P|Q|R|S|T|U|V|W|X|Y|Z

Join Us Today!

Don't strum alone...
be a part of the largest online Christian music community. Browse thousands of guitar tabs and chat w/ musicians like yourself.


It's Free!

Five Iron Frenzy - Superpowers

This tab has been rated a 4.00 out of 5 for accuracy. (1 vote)Sorry, but you must be logged in to rate this tab.
Click here to log-in, or you can click here to register.
(Registration is free)

All songs owned by Integrity and Brentwood-Benson are used by permission. If you make copies of any song on this website, be sure to report your usage to CCLI.
Superpowers
Five Iron Frenzy

Intro added by: David Wendling (bass4jesus@hotmail.com)

G--------5555--------10----10---------|
D--6666--------4444-----11----11------|      God Bless and have fun!!!
A-------------------------------------|
E-------------------------------------|


G----------------------------------10---10--
D---11-11-11-13-------------9-9-9----11---11
A---------------10-10-10-13-------8---------
E-------------------------------------------
Play this over and over
this is the chorus
G------------------------------
D-----5-------3----------------
A---6---6---4---4---3---6-6-4-3
E-----------------4---4--------
play that twice
play this once
G--------------------------------------------------------------
D-----5-------3--------1------1------3--0------4---------------
A---6----6--4----4--3----3--2---2--1------4--4---4--6---4--6--6
E--------------------------------------------------------------
play this once
G---------------------------------------------------------------------
D---------------------------------------------------------------------
A------8-8-----6-6-------8-8-----6-6--4-4-------6-6-------4-4-----6-6-
E--4-4-----6-6------4-4------6-6-----------4-4-------4-4------6-6-----
this is the bridge


G------------------------------------------------------------
D------------------------------------------------------------
A---8--7--6--5--4--3--4--5--6--7--8--7--6--5--4--3--4------6-
E-------------------------------------------------------6----
and finally the outro


G-------------------------------------------------------
D-----------------3--3--6--6-----------------------5--5-
A----------3--3-----------------------4--4--6--6--------
E---4--4-----------------------6--6---------------------

Comments about this tab

d_o_g - 2004-08-22

Hey I saw this video clip and song at my school and i just have to say it made my day! i wish i could have it on my computer so i could look at it every day but yeah it made my day when i had a bad one thanks guys you rock!


sanctusfan14 - 2005-02-10

good job.....but wheres all the lil licks and the solo? if n e one could tab it that would be nice:-D


musicmatt112590 - 2005-03-18

All the chords are 7ths


guitarforgod23 - 2005-11-02

yeah 7ths im with you dude.


lahtib - 2005-12-25

I have to agree, the 7th chords are pretty important to get that bluesy sound, thanks for the good work though!


Add a comment/correction

Complimentary Christian Ringtones
Dadamobile and CGR have teamed up to bring your favorite Christian artists right to your phone. Sign up today and get 10 complementary ringtones!
Tab Country
Did you know CGR has a sister site w/ country guitar tabs? Well we do! Its called Tab Country. It has a great archive with a lot of country tabs.
Rockin Tabs
Are you looking for a site that has rock guitar tabs? Then Rockintabs.com is the place for you. It is a budding site with many rock guitar tabs. Submit your tab today.
Tab Gallery
Tab Gallery has a compilation of christian, rock, and country tabs all in one place. Come visit us.