Bass Tabs
(THIRD DAY) OR BY ARTIST NAME (JENNIFER KNAPP)
0-9|A|B|C|D|E|F|G|H|I|J|K|L|M|N|O|P|Q|R|S|T|U|V|W|X|Y|Z

Join Us Today!

Don't strum alone...
be a part of the largest online Christian music community. Browse thousands of guitar tabs and chat w/ musicians like yourself.


It's Free!

This tab has not yet been rated for accuracy.Sorry, but you must be logged in to rate this tab.
Click here to log-in, or you can click here to register.
(Registration is free)

All songs owned by Integrity and Brentwood-Benson are used by permission. If you make copies of any song on this website, be sure to report your usage to CCLI.
Submitted by: scheller

ON DISTANT SHORES
Five Iron Frenzy
Album THE END IS NEAR
Words by Reese Roper
Music by Five Iron Frenzy
C 2003 5 Minute Walk Records

tabbed by scheller   sonnyschell@hotmail.com
Comments, corrections welcome.

Drop D tuning: DADG 
(you'll see why in the Bridge section. You could play it in standard
and play the low D an octave up)
If you're wondering what the little 'o's are, it means to repeat the
bars in between them the number of times indicated, ie 4x.

Here's the order:
Intro Riff
Verse 1 (same as Intro riff)
Pre-Chorus
Chorus (same as Intro riff)
Intro Riff
Verse 1 (same as Intro riff)
Pre-Chorus
Chorus (same as Intro riff)
Intro Riff
Bridge
Breakdown
Outro (Every New Day)

 Intro Riff (at the start, rest 4 measures, then...
|----------------|--------------|----------------|----------------|
|-5-4------------|--------------|------------4-5-|----4-----------|
|-----7-5--------|----------3---|-3-5-7-5--7-----|------7-5--2----|
|----------9-7-5-|---5-9-7------|----------------|----------------|
                                                            
|----------------|--------------|----------------|----------------|
|-5-4------------|--------------|------------4-5-|----5-5-5--5-5--|
|-----7-5--------|----------3---|-3-5-7-5--7-----|----------------|
|----------9-7-5-|---5-9-7------|----------------|----------------|


 Verse (same as Intro riff)

 Pre-Chorus
|---------------|---------------|---------------|---------------|
|----------0-2--|---------------|----------0-2--|-7-------------|
|-0--2-3-3------|----------0-2--|-0--2-3-3------|----5-5-5-5-5--|
|---------------|-2--4-5-5------|---------------|---------------|

|---------------|---------------|---------------|-----------------|
|----------0-2--|---------------|----------0-2--|----1-1-1-2-4-2\-|
|-0--2-3-3------|----------0-2--|-0--2-3-3------|-2---------------|
|---------------|-2--4-5-5------|---------------|-----------------|


 Chorus (same as Intro Riff) 
 [after 1st Chorus, go back to Intro and start over]
 [after 2nd Chorus, go back to Intro Riff and then to Bridge]

 Bridge
||---------------|-------------|--------------|--------------|
||o-2--2-2--2-2--|-------------|--------------|--------------|
||o--------------|---2--2-5-5--|--------------|---2--2-5-5---|
||---------------|-------------|-0--0-0--0-0--|--------------|

                                                           4x
|--------------|-------------|--------------|--------------||
|--------------|-------------|--------------|---------4-4-o||
|-3--3-3--3-3--|---5--5-7-7--|-2--2-2--2-2--|---2--6------o||
|--------------|-------------|--------------|--------------||


 Breakdown                                                                  2x
||------------------|-----------------|-----------------|-------------------||
||o-----------------|-----------------|-----------------|------------------o||
||o-----------------|-----------------|-2-2-2-2-2-2-2-2-|-2-/5-5-5-5-5-5-5-o||
||--5-5-5-5-5-5-5-5-|-5-2-2-2-2-2-2-2-|-----------------|-------------------||

|-----------------|-----------------|-----------------|-----------------|
|-----------------|-----------------|-----------------|-----------------|
|-0-0-0-0-0-0-0-0-|-0-3-3-3-3-3-3-3-|-0-0-0-0-0-0-0-0-|-0-3-3-3-3-5-5-5-|
|-----------------|-----------------|-----------------|-----------------|

                                                                            3x
||------------------|-----------------|-----------------|-------------------||
||o-----------------|-----------------|-----------------|------------------o||
||o-----------------|-----------------|-2-2-2-2-2-2-2-2-|-2-/5-5-5-5-5-5-5-o||
||--5-5-5-5-5-5-5-5-|-5-2-2-2-2-2-2-2-|-----------------|-------------------||

|-----------------|-----------------|-----------------|-----------------|
|-----------------|-----------------|-----------------|-----------------|
|-0-0-0-0-0-0-0-0-|-0-3-3-3-3-3-3-3-|-0-0-0-0-0-0-0-0-|-0-3-3-3-3-5-5-5-|
|-----------------|-----------------|-----------------|-----------------|

|-----------------|-----------------|-----------------|------------------|
|-----------------|-----------------|-----------------|------------------|
|-----------------|-----------------|-2-2-2-2-2-2-2-2-|-2-/5-5-5-5-5-5-5-|
|-5-5-5-5-5-5-5-5-|-5-2-2-2-2-2-2-2-|-----------------|------------------|


   Outro (Every New Day)
||------------------|-----------------|-----------------|-----------------|
||o-----------------|-----------------|-----------------|-----------------|
||o-7-7-7-7-7-7-7-7-|-x-x-2-2-2-2-2-2-|-----------------|-x-x-4-4-2-2-2-2-|
||------------------|-----------------|-6-6-6-6-6-6-6-6-|-----------------|

                                                                          4x
|-----------------|-----------------|-----------------|-------------------||
|-----------------|-----------------|-----------------|------------------o||
|-----------------|-----------------|-----------------|-x-x-2-2-2-2-2-2--o||
|-7-7-7-7-7-7-7-7-|-x-x-6-6-6-6-6-6-|-4-4-4-4-4-4-4-4-|-------------------||

||------------------|-----------------|-----------------|-----------------|
||o-----------------|-----------------|-----------------|-----------------|
||o-7-7-7-7-7-7-7-7-|-2-2-2-2-2-2-2-2-|-----------------|-4-4-4-4-2-2-2-2-|
||------------------|-----------------|-6-6-6-6-6-6-6-6-|-----------------|

                                                                          2x
|-----------------|-----------------|-----------------|-------------------||
|-----------------|-----------------|-----------------|------------------o||
|-----------------|-----------------|-----------------|-2-2-2-2-2-2-2-2--o||
|-7-7-7-7-7-7-7-7-|-6-6-6-6-6-6-6-6-|-4-4-4-4-4-4-4-4-|-------------------||


|----------||
|----------||
|-7--------||
|----------||

The End

RIP FIF

Generated using Power Tab Editor by Brad Larsen - http://www.power-tab.net

Comments about this tab

No comments/corrections found. Add your own

Complimentary Christian Ringtones
Dadamobile and CGR have teamed up to bring your favorite Christian artists right to your phone. Sign up today and get 10 complementary ringtones!
Tab Country
Did you know CGR has a sister site w/ country guitar tabs? Well we do! Its called Tab Country. It has a great archive with a lot of country tabs.
Rockin Tabs
Are you looking for a site that has rock guitar tabs? Then Rockintabs.com is the place for you. It is a budding site with many rock guitar tabs. Submit your tab today.
Tab Gallery
Tab Gallery has a compilation of christian, rock, and country tabs all in one place. Come visit us.