Bass Tabs
(THIRD DAY) OR BY ARTIST NAME (JENNIFER KNAPP)
0-9|A|B|C|D|E|F|G|H|I|J|K|L|M|N|O|P|Q|R|S|T|U|V|W|X|Y|Z

Join Us Today!

Don't strum alone...
be a part of the largest online Christian music community. Browse thousands of guitar tabs and chat w/ musicians like yourself.


It's Free!

Five Iron Frenzy - Milestone

This tab has not yet been rated for accuracy.Sorry, but you must be logged in to rate this tab.
Click here to log-in, or you can click here to register.
(Registration is free)

All songs owned by Integrity and Brentwood-Benson are used by permission. If you make copies of any song on this website, be sure to report your usage to CCLI.
Milestone
Five Iron Frenzy
Upbeats and Beatdowns
copyright 1996 5 Minute Walk Records
Words:Reese. Music:Scott and Dennis
Grant tabbed this(and it took a long time)
so thank me at www.Ska_Bassist@Hotmail.com(haha)
and if you don't want to thank me, e-mail me anyways

Well, I don't have anything to say so I'll just start tabbin!

G|----------------------| This is the first intro
D|----------------------|
A|----------------------| 2x
E|5-0--10-0--5-0--10-0--|
  I'm gonna call this the second intro
G|--------------------------------------------|
D|------------------------2-----------------2-|
A|0-5-2--5-5420--5-2-5--54-0-5-2--5-5420--5---|
E|--------------------------------------------|
Okay, here's verse 1
G|-------------------------------------------------2--------|
D|------------22-2----22-2-------------------00-0-4--00-0---| 2x
A|0-045420-4-5----22-2----22-------1-4----1-4------------0-2|
E|--------------------------54-22-2---22-2------------------|
Then play the chorus
G|--1--------------------|
D|2--2-4-4-4-2-0-4-0-----| 4x
A|------------------0-2-4|
E|-----------------------|
Then go back and play the verse and then go to the chorus.
Then play "Intro 2" and then this(I'll call it the bridge)

G|-------------------------------------------------|
D|--------------------------------22---------------|
A|----------------22-----------55-----------22-----|
E|----------22-00----33--22-55--------22-00-----33-|
Then play Intro 1 and then intro 2
End on A(you know, that 3rd string.....)
My ICQ # is 57785182 if you want to msg me.

Comments about this tab

RK911 - 2005-01-02

your 6 string is ware your 1st string should be


keefer - 2006-05-17

This is what I figured out also. Cool!!!


Add a comment/correction

Complimentary Christian Ringtones
Dadamobile and CGR have teamed up to bring your favorite Christian artists right to your phone. Sign up today and get 10 complementary ringtones!
Tab Country
Did you know CGR has a sister site w/ country guitar tabs? Well we do! Its called Tab Country. It has a great archive with a lot of country tabs.
Rockin Tabs
Are you looking for a site that has rock guitar tabs? Then Rockintabs.com is the place for you. It is a budding site with many rock guitar tabs. Submit your tab today.
Tab Gallery
Tab Gallery has a compilation of christian, rock, and country tabs all in one place. Come visit us.