Bass Tabs
(THIRD DAY) OR BY ARTIST NAME (JENNIFER KNAPP)
0-9|A|B|C|D|E|F|G|H|I|J|K|L|M|N|O|P|Q|R|S|T|U|V|W|X|Y|Z

Join Us Today!

Don't strum alone...
be a part of the largest online Christian music community. Browse thousands of guitar tabs and chat w/ musicians like yourself.


It's Free!

This tab has been rated a 5.00 out of 5 for accuracy. (1 vote)Sorry, but you must be logged in to rate this tab.
Click here to log-in, or you can click here to register.
(Registration is free)

All songs owned by Integrity and Brentwood-Benson are used by permission. If you make copies of any song on this website, be sure to report your usage to CCLI.
Submitted by: one3rd

Artist: Extol
Song: Grace For Succession
Album: Synergy
 2003 Century Media
 2003 Magic Arts Publishing
Tabbed By: Alex Lowery (theboxparticle@aol.com)
Find any errors and I'll give you a cookie.

Tuning: (D G C F)

This song is fast and has lots of weird time signatures.  Don't worry
too much about the time signatures though, because the song stays at the
same general tempo througout.  Pay more attention to the rhythms.

w = whole note
h = half note
q = quarter note
e = half note
s = sixteenth note
_ = tie
CAPITAL LETTER = stress this note


[Part A1 (5/8)]

   S s e  e  E  e   E  e  S s e  e   E  e  e  s s e

F:----------------|----------------|----------------|
C:----------------|----------------|----------------|
G:-3-3-3--3--0--0-|-1--1--2-2-2--2-|----------0-0-0-|
D:----------------|----------------|-0--0--0--------|

   E  e  E  e  e   e  E  e  e  E

F:-------------R-|---------------|
C:-------------E-|-5--6--------4-|
G:-3-----2-----S-|---------------|
D:----4-----3--T-|-------3--2----|



[Part A2 (5/8)...(3/8)]

   S s e  e  E  e   E  e  S s e  e   E  e  e  s s e
F:----------------|----------------|----------------|
C:----------------|----------------|----------------|
G:-3-3-3--3--0--0-|-1--1--2-2-2--2-|----------0-0-0-|
D:----------------|----------------|-0--0--0--------|

   E  e  E  e  e   e  E  e  e  E

F:-------------R-|---------|
C:-------------E-|-5--6----|
G:-3-----2-----S-|---------|
D:----4-----3--T-|-------3-|


[Part B1 (4/4,9/8)]

   E  e  e  e  e  e  e  e   S s s s s s e  e  e  e  e  e

F:------------------------|-----------R------------------|
C:------------------------|-----------E------------------|
G:-------------------2----|-----------S-------------2----|
D:-0--1--0--1--0--1-----1-|-0-0-0-0-1-T-0--1--0--1-----1-|


[Part B2 (4/4,9/8)]

   W___w__s__w___w__s

F:---|------|---|------|
C:---|------|---|------|
G:---|------|---|------|
D:-0_|_0__0_|_0_|_0__0-|


[Part C 7/4]

   E  e  e  E__e  e__e  E__e  e__e  E__q

F:---------------------------------------|
C:---------------------------------------|
G:-4--4--4--0__0--0__0--1__1--1__1--2__2-|
D:---------------------------------------|


[Part D (3/4)]

   E  e  E  e  E  e   E  e  E  e  E  e   E  e  E  e  E  e   E  e  E  e  E  e

F:------------------|------------------|------------------|------------------|
C:------------------|------------------|------------------|------------------|
G:-5--5--5--5--5--5-|-3--3--3--3--3--3-|------------------|------------------|
D:------------------|------------------|-5--5--5--5--5--5-|-6--6--6--6--6--6-|

   E  e  E  e  E  e   E  e  E  e  E  e   E  e  E  e  E  e   E  e  E  e  E  e

F:------------------|------------------|------------------|------------------|
C:------------------|------------------|------------------|------------------|
G:-5--5--5--5--5--5-|-3--3--3--3--3--3-|------------------|------------------|
D:------------------|------------------|-5--5--5--5--5--5-|-3--3--3--3--3--3-|


[Part E1 (6/8)]

   E  e  e  E  e  e   E  e  e  E  e  e

F:------------------|------------------|
C:------------------|------------------|
G:------------------|------------------|  x8
D:-2--2--2--2--2--2-|-2--2--2--2--2--2-|

   E  e  e  E  e  e   E  e  e  E  e  e

F:------------------|------------------|
C:------------------|------------------|
G:------------------|------------------|  x8
D:-1--1--1--1--1--1-|-1--1--1--1--1--1-|


[Part E2 (6/8)]

REST x16


[Part F (6/8)]

   e  e  e  e  e  e   e  e  e  e  e  e

F:-R----------------|-R----------------|
C:-E----------------|-E----------------|
G:-S--4--4--4--4--4-|-S--4--4--4--4--4-|  x2
D:-T----------------|-T----------------|

   e  e  e  e  e  e   e  e  e  e  e  e

F:-R----------------|-R----------------|
C:-E----------------|-E----------------|
G:-S----------------|-S----------------|  x2
D:-T--5--5--5--5--5-|-T--5--5--5--5--5-|

   e  e  e  e  e  e   e  e  e  e  e  e

F:-R----------------|-R----------------|
C:-E----------------|-E----------------|
G:-S----------------|-S----------------|  x2
D:-T--3--3--3--3--3-|-T--3--3--3--3--3-|

   e  e  e  e  e  e   e  e  e  e  e  e

F:-R----------------|-R----------------|
C:-E----------------|-E----------------|
G:-S----------------|-S----------------|
D:-T--0--0--0--0--0-|-T--0--0--0--0--0-|

   e  e  e  e  e  e   e  e  e  e  e  e

F:-R----------------|------------------|
C:-E----------------|------------------|
G:-S----------------|------------------|
D:-T--2--2--2--2--2-|-2--2--2--2--2--2-|


[Part 2 (6/8)]

   e  e  e  e  e  e   e  e  e  e  e  e

F:-R----------------|-R----------------|
C:-E----------------|-E----------------|
G:-S--4--4--4--4--4-|-S--4--4--4--4--4-|  x2
D:-T----------------|-T----------------|

   e  e  e  e  e  e   e  e  e  e  e  e

F:-R----------------|-R----------------|
C:-E----------------|-E----------------|
G:-S----------------|-S----------------|  x2
D:-T--5--5--5--5--5-|-T--5--5--5--5--5-|

   e  e  e  e  e  e   e  e  e  e  e  e

F:-R----------------|-R----------------|
C:-E----------------|-E----------------|
G:-S----------------|-S----------------|  x2
D:-T--3--3--3--3--3-|-T--3--3--3--3--3-|

   e  e  e  e  e  e   e  e  e  e  e  e

F:-R----------------|-R----------------|
C:-E----------------|-E----------------|
G:-S----------------|-S----------------|
D:-T--0--0--0--0--0-|-T--0--0--0--0--0-|

      

F:-R----|
C:-E----|
G:-S----|
D:-T--2-|  let it ring out indefinitely


Play the parts in this order:

A1 x4
B1 x4
C  x1
B1 x2
B2 x1
B1 x4
D  x1
E1 x2
A1 x3
A2 x1
E1 x2
E2 x1
F1 x1

Comments about this tab

invader skoodge - 2005-07-06

great job on the tab but can you or somebody please tab out that one song plan B from electric boogaloo?


Add a comment/correction

Complimentary Christian Ringtones
Dadamobile and CGR have teamed up to bring your favorite Christian artists right to your phone. Sign up today and get 10 complementary ringtones!
Tab Country
Did you know CGR has a sister site w/ country guitar tabs? Well we do! Its called Tab Country. It has a great archive with a lot of country tabs.
Rockin Tabs
Are you looking for a site that has rock guitar tabs? Then Rockintabs.com is the place for you. It is a budding site with many rock guitar tabs. Submit your tab today.
Tab Gallery
Tab Gallery has a compilation of christian, rock, and country tabs all in one place. Come visit us.