Bass Tabs
(THIRD DAY) OR BY ARTIST NAME (JENNIFER KNAPP)
0-9|A|B|C|D|E|F|G|H|I|J|K|L|M|N|O|P|Q|R|S|T|U|V|W|X|Y|Z

Join Us Today!

Don't strum alone...
be a part of the largest online Christian music community. Browse thousands of guitar tabs and chat w/ musicians like yourself.


It's Free!

Five Iron Frenzy - It's Not Unusual

This tab has not yet been rated for accuracy.Sorry, but you must be logged in to rate this tab.
Click here to log-in, or you can click here to register.
(Registration is free)

All songs owned by Integrity and Brentwood-Benson are used by permission. If you make copies of any song on this website, be sure to report your usage to CCLI.
Song:      It's Not Unusual
Artist:    Five Iron Frenzy
Tabbed By: Trevor Wojick

Verse Part 1:       (x5)

G|---------------------|
D|---------------------|
A|-3-33-3-33-5-55------|
E|----------------3-33-|

Verse Part 2:       (x5)

G|---------------------|
D|---------------------|
A|-3-33-3-33-5-55-5-55-|
E|---------------------|

Chorus 1:           (x1)

G|------------------------------------------------
D|------------------------------------------------
A|-7-77-7-77-5-55-5-55-----------3-33-3-33-5-55-3-
E|---------------------3-33-3-33------------------

G|---|
D|---|
A|---|
E|33-|

Verse Part 1:       (x1)

Verse Part 2:       (x1)

Chorus 2:           (x1)

G|------------------------------------------------
D|------------------------------------------------
A|-7-77-7-77-5-55-5-55-----------3-33-3-33-5-55-5-
E|---------------------3-33-3-33------------------

G|------------------------------------------------
D|------------------------------------------------
A|55-----------3-33------3-33-3-33-5-55-5-55------
E|---3-33-3-33------3-33---------------------3-33-

G|-------------------------|
D|-------------------------|
A|-----7-77-5-55-5-55------|
E|3-33----------------3-33-|

Verse Part 1:       (x3)

Verse Part 2:       (x1)

Chorus 3:           (x1)

G|-----------------------------------------|
D|-----------------------------------------|
A|-7-77-7-77-5-55-5-55-----------3-33-5-55-|
E|---------------------3-33-3-33-----------|

Ending 1:           (x7)

G|-----------|
D|-----------|
A|-7-77-5-55-|
E|-----------|

Ending 2:

G|----------------------------------------|
D|----------------------------------------|
A|-3(a whole bunch)--/--15(a whole bunch)-|
E|----------------------------------------|


For any corrections, requests or whatever e-mail me at tor1331@hotmail.com
Copyright: 2000 Five Minute Walk Records Inc.

Comments about this tab

No comments/corrections found. Add your own

Complimentary Christian Ringtones
Dadamobile and CGR have teamed up to bring your favorite Christian artists right to your phone. Sign up today and get 10 complementary ringtones!
Tab Country
Did you know CGR has a sister site w/ country guitar tabs? Well we do! Its called Tab Country. It has a great archive with a lot of country tabs.
Rockin Tabs
Are you looking for a site that has rock guitar tabs? Then Rockintabs.com is the place for you. It is a budding site with many rock guitar tabs. Submit your tab today.
Tab Gallery
Tab Gallery has a compilation of christian, rock, and country tabs all in one place. Come visit us.