Bass Tabs
(THIRD DAY) OR BY ARTIST NAME (JENNIFER KNAPP)
0-9|A|B|C|D|E|F|G|H|I|J|K|L|M|N|O|P|Q|R|S|T|U|V|W|X|Y|Z

Join Us Today!

Don't strum alone...
be a part of the largest online Christian music community. Browse thousands of guitar tabs and chat w/ musicians like yourself.


It's Free!

This tab has not yet been rated for accuracy.Sorry, but you must be logged in to rate this tab.
Click here to log-in, or you can click here to register.
(Registration is free)

All songs owned by Integrity and Brentwood-Benson are used by permission. If you make copies of any song on this website, be sure to report your usage to CCLI.
Submitted by: ScorpioScipelli

Song: Four-Fifty-One
Band: Five Iron Frenzy
Album: All The Hype That Money Can Buy
Release Date: 2000
Label: 5 Minute Walk Records
Bassist: Keith Hoerig

BASS TAB
tabbed by ScorpioScipelli

Legend:
* = changes (look for footnotes)
r = let the note ring until the next note

[Intro/Post-Chorus/Outro*]

G|--------------------------------|
D|3-3-3---------------------------|
A|------3---3---0---0-0---1-1---1-|
E|--------------------------------|

*After the last repetition of the Outro, end on F.

[Verse] "Here the man draw the line..."

G|----------------------------------------------------------------|
D|3-3-2-2-0-0-----------------0-0-0-0-2-2-3-3-2-2---------0-0-2-2-|
A|------------3-3-0-0-1-1-3-3---------------------1-1-3-3---------|
E|----------------------------------------------------------------|

[Pre-Chorus] "We're going nowhere..."

G|----------------------------------------------------------------|
D|--------0---0-----------3-3---3---------0---0-------------------|
A|0r--------------3---3-3---------0r--------------3-3-3-3-3-3-3-3-|
E|----------------------------------------------------------------|

[Chorus] "Somewhere away from here..."

  (A)              (B)              (C)              (D)
G|----------------|----------------|----------------|--------0x4-----|
D|----0-3-----3---|--------3x4-----|3x4-------------|3x4-------------|
A|1-3-------0-----|----------------|----------------|----------------|
E|----------------|3x4-------------|--------3x4-----|----------------|

The order for this is ABCABD.

[Bridge] "The radio is preaching..."

  (A)
G|0-0-0-0-0-0-0-0-------------------------------------------------|
D|----------------0-0-0-0-0-0-0-0-3-3-3-3-3-3-3-3-----------------|
A|------------------------------------------------3-3-3-3-3-3-3-3-|
E|----------------------------------------------------------------|

  (B)
G|0-0-0-0-0-0-0-0---------------------------------0-0-0-0-0-0-0-0-|
D|----------------0-0-0-0-0-0-0-0-3-3-3-3-3-3-3-3-----------------|
A|----------------------------------------------------------------|
E|----------------------------------------------------------------|

The order for this is AAAB.

[Recap On The Order]

Intro (four times)
Verse (four times)
Pre-Chorus (two times)
Chorus
Post-Chorus (four times)
Verse (two times)
Pre-Chorus (two times)
Chorus
Bridge
Pre-Chorus (two times)
{Guitar Solo Chorus}
Chorus
Outro (four times)

Email: ScorpioScipelli@msn.com

Comments about this tab

pxlRawker - 2004-08-20

Oh man, this tab rawks. Thanks so much, man.


theekevy - 2005-01-04

At the end of the intro before the vocals come in, the guitar plays

G-
D-9 I don't know how many times, just listen to the CD, you'll hear it.
A-
E-


tfkguy - 2005-02-16

I thought u weren't supposed to out the words up


Add a comment/correction

Complimentary Christian Ringtones
Dadamobile and CGR have teamed up to bring your favorite Christian artists right to your phone. Sign up today and get 10 complementary ringtones!
Tab Country
Did you know CGR has a sister site w/ country guitar tabs? Well we do! Its called Tab Country. It has a great archive with a lot of country tabs.
Rockin Tabs
Are you looking for a site that has rock guitar tabs? Then Rockintabs.com is the place for you. It is a budding site with many rock guitar tabs. Submit your tab today.
Tab Gallery
Tab Gallery has a compilation of christian, rock, and country tabs all in one place. Come visit us.