Bass Tabs
(THIRD DAY) OR BY ARTIST NAME (JENNIFER KNAPP)
0-9|A|B|C|D|E|F|G|H|I|J|K|L|M|N|O|P|Q|R|S|T|U|V|W|X|Y|Z

Join Us Today!

Don't strum alone...
be a part of the largest online Christian music community. Browse thousands of guitar tabs and chat w/ musicians like yourself.


It's Free!

This tab has not yet been rated for accuracy.Sorry, but you must be logged in to rate this tab.
Click here to log-in, or you can click here to register.
(Registration is free)

All songs owned by Integrity and Brentwood-Benson are used by permission. If you make copies of any song on this website, be sure to report your usage to CCLI.
Submitted by: bassman0488

It's Over
Audio Adrenaline

Intro:(Drop D)

A|---------------------------------------------------------------|
D|10-10-10-10\5-5-5-5/10-10-10-10\5-5-5-5/10-10-10-10\5-5-5-5\0--| x2
  C           G       C           G       C           G       D

Verse:
D|--------------------------------|
A|7--7--7-7--0--0-0/5--5-5/10--10-|
D|--------------------------------|
  E          A      D      G

D|---------------------------------5-5h7-|
A|7--7--7-7--0--0-0/5--5---5-5 -5h7------|
D|---------------------------------------|
  E          A      D

D|--------------------------------|
A|7--7--7-7--0--0-0/5--5-5/10--10-|
D|--------------------------------|
  E          A      D      G

D|-------------------------|
A|7--7--7-7--0--0-0--------|
D|-------------------0-----|
  E          A       D


Chorus(1st Time):

A|-----------------------------------------------------------------------|
D|10-10-10-10\5-5-5-5/10-10-10-10\5-5-5-5/10-10-10-10\5-5-5-5\0-0-0-0-0--| 
  C           G       C           G       C           G       D

A|---------3--3-3-----------------------|
E|-2--2-2---------0--0-0--5--5-5-|
   E       C      D       G

A|--------3--3-3---|
E|-2--2-2---------0|
     E    C      *D(Chop Note)

*Play Verse*

Chorus(2nd Time):

A|-----------------------------------------------------------------------|
D|10-10-10-10\5-5-5-5/10-10-10-10\5-5-5-5/10-10-10-10\5-5-5-5\0-0-0-0-0--| 
  C           G       C           G       C           G       D

A|---------3--3-3------------------|
E|-2--2-2-----------0--0-0--5--5-5-|
   E       C        D       G

A|-----------3--3-3--5-5-5-----|
E|-2--2-2-------------------5--|
   E         C       D      G

PLay the chorus line for the part where they sing "Lights go down..."

The part where only the bass and drums play it's this:

D|--9-9-10-10-12-12-5-5-|(x3)
    B   C     D     G

D|--9-9-10-10-0-0-0-0--|
    B   C     D
PLay the chorus once more all the way through and then play the intro
chords until the ending

The rhythms aren't totally, it's hard to get them totally right so play
what you think sounds right, but I'm sure the chords are correct, so if
you find anything wrong or if you have comments, email me at idgit0488@aol.com

Comments about this tab

No comments/corrections found. Add your own

Complimentary Christian Ringtones
Dadamobile and CGR have teamed up to bring your favorite Christian artists right to your phone. Sign up today and get 10 complementary ringtones!
Tab Country
Did you know CGR has a sister site w/ country guitar tabs? Well we do! Its called Tab Country. It has a great archive with a lot of country tabs.
Rockin Tabs
Are you looking for a site that has rock guitar tabs? Then Rockintabs.com is the place for you. It is a budding site with many rock guitar tabs. Submit your tab today.
Tab Gallery
Tab Gallery has a compilation of christian, rock, and country tabs all in one place. Come visit us.