Bass Tabs
(THIRD DAY) OR BY ARTIST NAME (JENNIFER KNAPP)
0-9|A|B|C|D|E|F|G|H|I|J|K|L|M|N|O|P|Q|R|S|T|U|V|W|X|Y|Z

Join Us Today!

Don't strum alone...
be a part of the largest online Christian music community. Browse thousands of guitar tabs and chat w/ musicians like yourself.


It's Free!

This tab has not yet been rated for accuracy.Sorry, but you must be logged in to rate this tab.
Click here to log-in, or you can click here to register.
(Registration is free)

All songs owned by Integrity and Brentwood-Benson are used by permission. If you make copies of any song on this website, be sure to report your usage to CCLI.
Submitted by: JMessenjah17

Song: Selah
Artist: P.O.D.(Payable On Death)
Submitted by: JMessenjah17

Sorry Chewbacca, but your (I don't know what it is) tab for this song is no way
near right. It's at a Drop-D because maybe ALL THE OTHER SONGS IN THE 'BROWN'
ALBUM ARE IN DROP-D TOO!!! Sorry about that, back to the song. Have fun, God
Bless and Jah People Ride On!

~=let it ring
/=slide up
\=slide down
x=muted string
b=bend up

Intro:
G/-----------------------------15-14--14-14-15-16\17-17-14-14-15/10--------15-]
D/---15~-15/13~-13-------------------------------------------------15-17-15---]
A/-15-------------13~-13\15~-15-----------------------------------------------]
D/----------------------------------------------------------------------------]

G/---------------------13-----------15--------------------13-----------15-----]
D/---15~-15/13-13-12-13--12-13-14-15----15~-15/13-13-12-13--12-13-14-15-------]
A/-15---------------------------------15--------------------------------------]
D/----------------------------------------------------------------------------]

G/-15-15-15-15-15-15-15-15/-]
D/--------------------------]
A/--------------------------]
D/--------------------------]

(Drums)

Verse(2x):
G/---------------------------------------------------------------------]
D/---------------------------------------------------------------------]
A/---------------------------------------------------------------------]
D/-00-00-00-00--1-00-00-00-00--xxxx-00-00-00-00--1-00-00-00--111-33-55-]

Chorus(2x):
G/-------------------------------------------------------------------]
D/-------------------------------------------------------------------]
A/-----------333\7-77\9999\101010\11-11-----------0-3-5--------------]
D/-00-3~-333---------------------------00-3~-333-0-----00-0-555-33-1-]

Verse(2x)

Chorus(2x)

Bridge(as many times as needed through both clean and distorted parts):
G/---------]
D/---------]
A/------6b-]
D/-0--0----]

Chorus(2x)

Outro(2x):
G/----------------------------------------------------------]
D/----------------------------------------------------------]
A/----------------------------------------------------------]
D/-00-00-00-00----00-00-00-00----00-00-00-00----00-00-00-00-]

That's it! Ya see Chewbacca? If you just listen hard enough to the song, then
you'll be able to tab out the right version. Hope this helps out to all my
fellow Warriors out there! Catch ya later!

Comments about this tab

No comments/corrections found. Add your own

Complimentary Christian Ringtones
Dadamobile and CGR have teamed up to bring your favorite Christian artists right to your phone. Sign up today and get 10 complementary ringtones!
Tab Country
Did you know CGR has a sister site w/ country guitar tabs? Well we do! Its called Tab Country. It has a great archive with a lot of country tabs.
Rockin Tabs
Are you looking for a site that has rock guitar tabs? Then Rockintabs.com is the place for you. It is a budding site with many rock guitar tabs. Submit your tab today.
Tab Gallery
Tab Gallery has a compilation of christian, rock, and country tabs all in one place. Come visit us.