Bass Tabs
(THIRD DAY) OR BY ARTIST NAME (JENNIFER KNAPP)
0-9|A|B|C|D|E|F|G|H|I|J|K|L|M|N|O|P|Q|R|S|T|U|V|W|X|Y|Z

Join Us Today!

Don't strum alone...
be a part of the largest online Christian music community. Browse thousands of guitar tabs and chat w/ musicians like yourself.


It's Free!

This tab has been rated a 4.33 out of 5 for accuracy. (3 votes)Sorry, but you must be logged in to rate this tab.
Click here to log-in, or you can click here to register.
(Registration is free)

All songs owned by Integrity and Brentwood-Benson are used by permission. If you make copies of any song on this website, be sure to report your usage to CCLI.
Submitted by: JMessenjah17

Song: Sad Machines
Artist: Project 86
Submitted by: JMessenjah17

Whoever did the previous tab of this song, sorry but it's not right.
Although the intro is close, listen to the song very carefully and
you'll see what I mean. This is 100% correct so have fun playing it!

Tuning: D A D G

h=hammer down
~=let it ring

Intro(4x):
G/-----------------------------]
D/-----------------------------]
A/-2-22-22-22-22-22-33-3-555-0-]
D/-----0-----0-----0-----------]

Verse(6x):
G/-----------------------------------]
D/-----------------------------------]
A/-2-222-2-22-2-22-0-000-00-333-5555-]
D/-----------------------------------]

Chorus(4x):
G/-------------------------]
D/---4--4------------------]
A/--2--2--0-000-00-3333333-]
D/-0--0--------------------]

Verse 6x

Chorus 4x

Bridge 1(2x):
G/---------------------------------------]
D/---------------------------------------]
A/---------2222222222222222222222-444444-]
D/-44444455------------------------------]

Bridge 2(4x):
G/----------------------------------------------]
D/------------------------------------------222-]
A/-22-00-0h2-0-22-00-0h2-0-22-00-0h2-0-22-0-----]
D/----------5-----------5-----------5-----------]

Bass Solo(4x):
G/-----------------------------------]
D/-----------------------------------]
A/-2-222-2-22-2-22-0-000-00-333-5555-]
D/-----------------------------------]

End of Solo:
G/-----------]
D/-----------]
A/-2~~-2-0~~-]
D/-----------]

The chorus keeps going and fading out so play as many times as you want.
I've also been tabbing out some rare P.O.D. songs like "Abortion is Murder"
and the live version of "Draw the Line". If you want you can check the tabs
out. Enjoy, God Bless and Jah People Ride On!

Comments about this tab

No comments/corrections found. Add your own

Complimentary Christian Ringtones
Dadamobile and CGR have teamed up to bring your favorite Christian artists right to your phone. Sign up today and get 10 complementary ringtones!
Tab Country
Did you know CGR has a sister site w/ country guitar tabs? Well we do! Its called Tab Country. It has a great archive with a lot of country tabs.
Rockin Tabs
Are you looking for a site that has rock guitar tabs? Then Rockintabs.com is the place for you. It is a budding site with many rock guitar tabs. Submit your tab today.
Tab Gallery
Tab Gallery has a compilation of christian, rock, and country tabs all in one place. Come visit us.