Bass Tabs
(THIRD DAY) OR BY ARTIST NAME (JENNIFER KNAPP)
0-9|A|B|C|D|E|F|G|H|I|J|K|L|M|N|O|P|Q|R|S|T|U|V|W|X|Y|Z

Join Us Today!

Don't strum alone...
be a part of the largest online Christian music community. Browse thousands of guitar tabs and chat w/ musicians like yourself.


It's Free!

This tab has been rated a 4.09 out of 5 for accuracy. (11 votes)Sorry, but you must be logged in to rate this tab.
Click here to log-in, or you can click here to register.
(Registration is free)

All songs owned by Integrity and Brentwood-Benson are used by permission. If you make copies of any song on this website, be sure to report your usage to CCLI.
Submitted by: Fast_Fingarz

Artist: Switchfoot
Album: The Beautiful Letdown
Song:  Dare You To Move
C 2003 Sparrowrecords

Dont get this confused with "Dare you to move" from learnign to breathe.
This is the tab for the re-recording from 'The Beautiful Letdown'.  The
other bass tab for this song is way off, anyway.  So heres a more accurate
one . . .

This song is really cool.  Especially when its played along with the CD.
I know this is 99% right so enjoy!

NOTE:  You have to listen to the CD to get the timing right on everything.
The changes occur the same time as the lead guitar chord changes.

h=hammer
/=slide up
\=slide down

1st Verse:

G) ----------------------------------------|
D) ----------------------------------------|
A) ----------------2-------------------2---|
E) 0---0---0---2-------0---0---0---2-------|

1st Chorus:

G) ----------------------------------------|
D) ----------------------------------------|
A) ----2---0-----2----2---0---2------------|
E) 0--------------0---------------0--------|

2nd Verse:

G) -------------------|--------------------|
D) -------------------|--------------------|
A) 2h4-4--2h4-4--4-4-2|---------------2----|
E) -------------------|--2---2/4--5--------|
                      x2
Repeat that first half twice before playing the next.

G) ----------------------------------------|
D) ----------------------------------------|
A) 2h4-4--2h4-4--4-4-2----------------2----|
E) ----------------------2---2/4--5--------|

Bridge:  

G) ------------|---------------------------|
D) ------------|---------------------------|
A) ------------|-----0---------------------|
E) 0-0-0-5-5-5-|--2------------------------|
               x3
You gotta play the first half of this run 3 times and listen to the CD to get
it right.

THeres no bass during the solo at all but I like to play an open E.

3rd Chorus/Outro:

G) -----------------------------------------|
D) -----------------------------------------|
A) ----2---0------2----2---0---4---0---2----|
E) 0---------------0-----------------------0|


Well there ya go.  Like I said this song is really cool and really easy to
play.  Please email with questions or corrections.

Christ loves us all!

====================================
Fast_Fingarz
Lead guitar/Backup vocals - Screwtapes Demise
Joh_Cat@juno.com
AIM: Fast Fingarz
Cherry Sunburst Epiphone Les Paul Standard
Vintage Sunburst Steinberger Spirit Bass
====================================

Comments about this tab

No comments/corrections found. Add your own

Complimentary Christian Ringtones
Dadamobile and CGR have teamed up to bring your favorite Christian artists right to your phone. Sign up today and get 10 complementary ringtones!
Tab Country
Did you know CGR has a sister site w/ country guitar tabs? Well we do! Its called Tab Country. It has a great archive with a lot of country tabs.
Rockin Tabs
Are you looking for a site that has rock guitar tabs? Then Rockintabs.com is the place for you. It is a budding site with many rock guitar tabs. Submit your tab today.
Tab Gallery
Tab Gallery has a compilation of christian, rock, and country tabs all in one place. Come visit us.