Bass Tabs
(THIRD DAY) OR BY ARTIST NAME (JENNIFER KNAPP)
0-9|A|B|C|D|E|F|G|H|I|J|K|L|M|N|O|P|Q|R|S|T|U|V|W|X|Y|Z

Join Us Today!

Don't strum alone...
be a part of the largest online Christian music community. Browse thousands of guitar tabs and chat w/ musicians like yourself.


It's Free!

Relient K - Mood Rings

This tab has been rated a 3.83 out of 5 for accuracy. (6 votes)Sorry, but you must be logged in to rate this tab.
Click here to log-in, or you can click here to register.
(Registration is free)

All songs owned by Integrity and Brentwood-Benson are used by permission. If you make copies of any song on this website, be sure to report your usage to CCLI.
Submitted by: oneillthe3rd

Song: Mood Rings
Artist: Relient K (matt thiessen)
Album: Two lefts don't make a right... but three do
  put out by Gotee records
Tabbed by: Pete O.


Inro/verse:  repeat these notes a lot 

D  2----------------------1-2-----------------
A   ------------0---2-------------------0----2
E   ------4------------------------4----------


1st part of the chorus:  this part's kinda syncopated

D  2-4---2-4--4-------------------
A  -----------------4-4----------2     x2
E  ------------------------4-4----


2nd part of the chorus:  

D  222----------------2---------------------2--------
A  -------0-0---2-2-----------0-0---2-2--------0----2
E  --------------------------------------------------


3rd part of the chorus:

D  22--1--22-------------------
A  --------------------0-2-4-22  x4
E  --------------44------------


verse:  repeat these notes a lot 

D  2-----------------
A  -------------0---2  x2
E  -------4----------


1st part of the chorus:  this part's kinda syncopated

D  2-4---2-4-4--------------------
A  -----------------4-4----------2     x2
E  ------------------------4-4----


2nd part of the chorus:  

D  222----------------2---------------------2--------
A  -------0-0---2-2-----------0-0---2-2--------0----2
E  --------------------------------------------------


3rd part of the chorus:

D  22--1--22--------------------
A  ---------------------0-2-4-22  x4
E  -------------44--------------


the bridge part about the colors:

D  22--1------------------
A  -------2-------0-2-4-22   x6
E  ----------44-----------


D  ---------
A  -4--2---0
E  ---------


ending:

D  2----------------------1-2
A  ------------0---2---------   x2
E  ------4-------------------


the outro has no bass in it


listen to the CD to really get the rhythms, they're kinda confusing in
some spots

um... i think that's pretty good.  this is my first tab so don't wail on me.

email me at bassically89@hotmail.com if you have stuff to say to me

pete

Comments about this tab

hiskey - 2005-10-23

i believe tha the b is really a bm..


Add a comment/correction

Complimentary Christian Ringtones
Dadamobile and CGR have teamed up to bring your favorite Christian artists right to your phone. Sign up today and get 10 complementary ringtones!
Tab Country
Did you know CGR has a sister site w/ country guitar tabs? Well we do! Its called Tab Country. It has a great archive with a lot of country tabs.
Rockin Tabs
Are you looking for a site that has rock guitar tabs? Then Rockintabs.com is the place for you. It is a budding site with many rock guitar tabs. Submit your tab today.
Tab Gallery
Tab Gallery has a compilation of christian, rock, and country tabs all in one place. Come visit us.