Bass Tabs
(THIRD DAY) OR BY ARTIST NAME (JENNIFER KNAPP)
0-9|A|B|C|D|E|F|G|H|I|J|K|L|M|N|O|P|Q|R|S|T|U|V|W|X|Y|Z

Join Us Today!

Don't strum alone...
be a part of the largest online Christian music community. Browse thousands of guitar tabs and chat w/ musicians like yourself.


It's Free!

Relient K - Hello McFly

This tab has been rated a 4.00 out of 5 for accuracy. (7 votes)Sorry, but you must be logged in to rate this tab.
Click here to log-in, or you can click here to register.
(Registration is free)

All songs owned by Integrity and Brentwood-Benson are used by permission. If you make copies of any song on this website, be sure to report your usage to CCLI.
Submitted by: poptarts4cheese

Hello McFly
Relient K

I'm sending this tab cuz both of the Hello McFly song dont sound rite so i
fixed it up a bit to make it sound better. The previous peeps did a good job
its just that it kinda of a mix of both and it sounds ALOT better! i hope


Intro

G-----------------------------
D---------1-2-4---------4-2-1-
A-------2--------------2------
E-00-22-----------00-22-------
(x4 1/2)i mean like after u play it like 4 times u only play the first half
it ends at 1-2-4 k 
Verse

G-------------------------------------
D-------------------------------------
A-33333333----------------------333333(x2)
E-----------33333333---11111111-------

Chorus

G-----------------------------------
D-----------------------------------
A-----9----7-----9-xxx-7-----------9
E-7------------7----------7---------

G------------------------------------
D------------------------------------
A-333--------------333------------3--
E-----333----111--------333---111----

Intro

G---------------------------------
D--------1-2-4------------4-2-1---
A------2----------------2---------(x2)
E-00-22------------00-22----------

Verse

G-------------------------------------
D-------------------------------------
A-33333333----------------------333333(x2)
E-----------33333333---11111111-------

Chorus

G-----------------------------------
D-----------------------------------
A-----9----7-----9-xxx-7-----------9
E-7------------7----------7---------

G------------------------------------
D------------------------------------
A-333--------------333------------3--
E-----333----111--------333---111----

Outro

G---------------------------------
D--------1-2-4------------4-2-1---
A------2----------------2---------(x2 1/2)
E-00-22------------00-22----------

Yep thats about it ummmmmm if you guys have any Q's email me at
chipmunkagostini@aol.com RELIENT K ROX!!!!!!!!

Comments about this tab

No comments/corrections found. Add your own

Complimentary Christian Ringtones
Dadamobile and CGR have teamed up to bring your favorite Christian artists right to your phone. Sign up today and get 10 complementary ringtones!
Tab Country
Did you know CGR has a sister site w/ country guitar tabs? Well we do! Its called Tab Country. It has a great archive with a lot of country tabs.
Rockin Tabs
Are you looking for a site that has rock guitar tabs? Then Rockintabs.com is the place for you. It is a budding site with many rock guitar tabs. Submit your tab today.
Tab Gallery
Tab Gallery has a compilation of christian, rock, and country tabs all in one place. Come visit us.