Bass Tabs
(THIRD DAY) OR BY ARTIST NAME (JENNIFER KNAPP)
0-9|A|B|C|D|E|F|G|H|I|J|K|L|M|N|O|P|Q|R|S|T|U|V|W|X|Y|Z

Join Us Today!

Don't strum alone...
be a part of the largest online Christian music community. Browse thousands of guitar tabs and chat w/ musicians like yourself.


It's Free!

Audio Adrenaline - Ocean Floor

This tab has been rated a 4.38 out of 5 for accuracy. (8 votes)Sorry, but you must be logged in to rate this tab.
Click here to log-in, or you can click here to register.
(Registration is free)

All songs owned by Integrity and Brentwood-Benson are used by permission. If you make copies of any song on this website, be sure to report your usage to CCLI.
Submitted by: w00t man

Audio Adrenaline - Ocean Floor

Album: LIFT

copyright 2001 

These are the basic notes...listen to the song to figure out the rhythm

(when it says something like 15151515, those are 15's, not alternating 1's
and 5's)

/-slide up
\-slide down

Intro:

guitar only first part, then when the solo guitar riff kicks in, play this

G|---------------------------------|
D|----------3---7-5----------------|
A|------3-------------3---3/15-----|
E|---------------------------------|

Verse:

G|-----------------------------------------|
D|-------------------------------------3---|
A|-3----15----3----5----0----3----5--------|
E|-----------------------------------------|

Chorus:

G|---------------------------------|
D|--------3---7-5------------------| x2
A|----3-------------3---3/15-------|
E|---------------------------------|

Verse

Chorus twice

Bridge:

G|---------------------------------
D|---------------------------------
A|-(guitar only first half, then)--
E|---------------------------------

G|------------------------------------|
D|------------------------------------|
A|------------------------------------|
E|-1/11--11\6/10\8---11--/13---\1--/13|

Chorus till the end, finish on A string, 3 fret

Comments about this tab

TheRealEvidence - 2004-07-25

This is The real evidence writing this message...the evidence that plays this song stoll my bands name...and the also think that there better then my evidence...well hey have another thing coming...cuz my band thats also named evidence will become even better then the evidence band that stoll our name...so if you get this message evidence...the Real evidences will beat your guys out..so you'd better watch it...God bless and rock on!!!

TheRealEvidence


Add a comment/correction

Complimentary Christian Ringtones
Dadamobile and CGR have teamed up to bring your favorite Christian artists right to your phone. Sign up today and get 10 complementary ringtones!
Tab Country
Did you know CGR has a sister site w/ country guitar tabs? Well we do! Its called Tab Country. It has a great archive with a lot of country tabs.
Rockin Tabs
Are you looking for a site that has rock guitar tabs? Then Rockintabs.com is the place for you. It is a budding site with many rock guitar tabs. Submit your tab today.
Tab Gallery
Tab Gallery has a compilation of christian, rock, and country tabs all in one place. Come visit us.