Bass Tabs
(THIRD DAY) OR BY ARTIST NAME (JENNIFER KNAPP)
0-9|A|B|C|D|E|F|G|H|I|J|K|L|M|N|O|P|Q|R|S|T|U|V|W|X|Y|Z

Join Us Today!

Don't strum alone...
be a part of the largest online Christian music community. Browse thousands of guitar tabs and chat w/ musicians like yourself.


It's Free!

This tab has been rated a 2.33 out of 5 for accuracy. (3 votes)Sorry, but you must be logged in to rate this tab.
Click here to log-in, or you can click here to register.
(Registration is free)

All songs owned by Integrity and Brentwood-Benson are used by permission. If you make copies of any song on this website, be sure to report your usage to CCLI.
Submitted by: w00t man

Relient K - Five Iron Frenzy is Either Dead or Dying
The Vynil Countdown 7-inch 


This is a great song...even if it's only about 30 seconds long.  you can get
it off of MP3.com if you dont want to get the vynil.  Great and hilarious
tribute to a great and hilarious band!

This is my first tab, i think it's accurate

x-palm mute


G|---------------------------------------------|
D|-----------------2-2---0-0-------------------| (2x)
A|-----------------------------4-4---4---------|
E|-5---4-4---2-2----------------------00000000-|
                                      xxxxxxxx

G|---------------------------------------------------------------------
D|-0-0-0-0-2-2-2-2-----------------0-0-0-0-2-2-2-2---------------------
A|-----------------0-0-0-0-------------------------00-000-000-000------
E|-------------------------2-2-2-2-------------------------------------

G|---------------------------------------------------|
D|-0-0-0-0-2-2-2-2-----------------0-0-0-0-2-2-2-2---|
A|-----------------0-0-0-0-------------------------0-|
E|-------------------------2-2-2-2-------------------|

That's it!

w00t man

Comments about this tab

No comments/corrections found. Add your own

Complimentary Christian Ringtones
Dadamobile and CGR have teamed up to bring your favorite Christian artists right to your phone. Sign up today and get 10 complementary ringtones!
Tab Country
Did you know CGR has a sister site w/ country guitar tabs? Well we do! Its called Tab Country. It has a great archive with a lot of country tabs.
Rockin Tabs
Are you looking for a site that has rock guitar tabs? Then Rockintabs.com is the place for you. It is a budding site with many rock guitar tabs. Submit your tab today.
Tab Gallery
Tab Gallery has a compilation of christian, rock, and country tabs all in one place. Come visit us.